PrimaNota.ru - самый крупный в мире бесплатный архив песенных текстов, аккордов, табулатур и нот


Trevor Hall - Chapter Of The Forest - таба, видео

Регистрация Запомнить меня
Войти через:  Facebook Google Twitter Vk Yandex Mail.ru

Trevor Hall - Chapter Of The Forest - таба, видео

Печатать
Просмотров: 579
Trevor Hall
Chapter of the forest
Standard tuning
Capo on 1st

I couldn't find a tab for this song anywhere so I decided to make my own. Very
simple and beautiful song, enjoy:)

Intro
E|-----------------0----------0------------------------0-----------0-------------0--------|
B|--3----5------8---------12-----------3---1p0------5-----------8------------12-----------|
G|--0----0-----0---------0------------0------------0-----------0------------0-------------|
D|----------------------------------------------------------------------------------------|
A|--3----5----7--------10------------3------------5-----------7-----------10--------------|
E|----------------------------------------------------------------------------------------|

E|--------------------0---------0-----------0----------|
B|----3---1p0------5---------8----------12-------------|
G|---0------------0---------0----------0---------------|
D|-----------------------------------------------------|
A|--3------------5---------7---------10----------------|
E|-----------------------------------------------------|

Trevor starts singing here and just plays this for the rest of the song
E|-------0---------0---------0-----------0---------|
B|----3---------5---------8----------12------------|
G|---0---------0---------0----------0--------------| repeat till the end
D|-------------------------------------------------|
A|--3---------5---------7---------10---------------|
E|-------------------------------------------------|

[Verse 1]
I meet my Lord down by the river side
It hits me almost every time
Beauty runs so deep, that its hard to sleep at night
This is the chapter of the forest
Every line, and every chorus
From my heart it comes a pouring
Into every single melody
Flame without the smoke
Harness all the poetry
I swear I'll never choke
Because I only speak of Narmada
Hara hara everyday
Make my love down at her waters
Calling on the mountain starter

[Chorus]
No more books, no more empty words
No more running away from her
I now learn from the wind and rain
From the song of the lion's mane
And as it touches and sun and moon
I sit back and behold that tomb
Of glory upon her name
We say hara hara hara Narmada

[Verse 2]
Well the one simple perspires
With a face that burns like fire
That's where I lay my body down
Yeah, and in my dream I heard the lesson
Of the vault that holds the heavens in
So now I gaze upon the crowd, yeah
You see my woman she is stainless
I slip her at the base
Touch the face, all the Gods come out the mountain
Sweet embrace
You see her song it can't be heard
Unless you let go of the world
So I laid it all down
And I behold what I heard

[Chorus]
No more books, no more empty words
No more running away from her
I now learn from the wind and rain
From the song of the lion's mane
And as it touches the sun and moon
I sit back and behold her tomb
All glory upon her name
We say hara hara hara Narmada

End

Please message me if there are any mistakes and I will fix them:)
Добавлено: 07.07.2013
Другие материалы по этой песне:
  • Аккорды и текст

Страница создана 07.07.2013
http://primanota.ru/trevor-hall/chapter-of-the-forest-chords.htm
Привет, Гость.
Предлагаем пройти революционный курс по гитаре.
Подарок от PrimaNota.Ru, забирай!