PrimaNota.ru - самый крупный в мире бесплатный архив песенных текстов, аккордов, табулатур и нот


Trentemoller - Take Me Into Your Skin - бас-таба, видео

Регистрация Запомнить меня
Войти через:  Facebook Google Twitter Vk Yandex Mail.ru

Trentemoller - Take Me Into Your Skin - бас-таба, видео

Печатать
Просмотров: 221
-------------------------------------------------------------------------------
                TAKE ME INTO YOU SKIN - Trentemoller
-------------------------------------------------------------------------------
Tabbed by: Alef de Boer
E-mail: alef_de_boer@ive.nl

Tuning: Tune down 1/2 step (EbAbDbGb) / 5 string version in standard tuning below

Bass fading it at around 0:24
Gb|--------------------------------------------------------------------------|
Db|--------------------------------------------------------------------------|
Ab|--------11----------------9-----------------------------------------------|
Eb|9----------------12-------------------------------------------------------|

Repeat this part until 3:45, let the last repetition fade out
Gb|--------------13--13--13--16-----------------11-11-11---------------------|
Db|-11-11-11-13------------------14--14--14--11----------11------------------|
Ab|------------11--11--11--11------------------9--9--9--9--------------------|
Eb|9--9--9--9------------------12--12--12--12--------------------------------|

Bridge (not quite sure about this)
Gb|--------------------------------------------------------------------------|
Db|4-------------------------------------------------------------------------|
Ab|----------------4---------------2-----------------------------------------|
Eb|----------------------------------------4-------2-------------------------|


Gb|--------------------------------------------------------------------------|
Db|--------------------------------------------------------------------------|
Ab|--------2-------------------------------2---------------------------------|
Eb|0---------------2---------------0---------------4---------------9---------|


At 4:28 Play the same riff as before twice, fading out during the second repetition (around 4:39)
Gb|--------------13--13--13--16-----------------11-11-11---------------------|
Db|-11-11-11-13------------------14--14--14--11----------11------------------|
Ab|------------11--11--11--11------------------9--9--9--9--------------------|
Eb|9--9--9--9------------------12--12--12--12--------------------------------|

Repeat the riff from 4:45 to 6:05
Gb|--------------13--13--13--16-----------------11-11-11---------------------|
Db|-11-11-11-13------------------14--14--14--11----------11------------------|
Ab|------------11--11--11--11------------------9--9--9--9--------------------|
Eb|9--9--9--9------------------12--12--12--12--------------------------------|

At 6:56, let the part fade in and repeat 3 times
Gb|--------------------------------------------------------------------------|
Db|--------------------------------------------------------------------------|
Ab|--------11----------------9-----------------------------------------------|
Eb|9----------------12-------------------------------------------------------|


I use a 5-string bass myself, so here's the I tabbed originally (in standard tuning: BEADG)

Bass fading it at around 0:24
G|---------------------------------------------------------------------------|
D|---------------------------------------------------------------------------|
A|--------10----------------8------------------------------------------------|
E|8----------------11--------------------------------------------------------|
B|---------------------------------------------------------------------------|

Repeat this part until 3:45, let the last repetition fade out
G|--------------12--12--12--15-----------------10-10-10----------------------|
D|-10-10-10-12------------------13--13--13--10----------10-------------------|
A|------------10--10--10--10------------------8--8--8--8---------------------|
E|8--8--8--8------------------11--11--11--11---------------------------------|
B|---------------------------------------------------------------------------|

Bridge (not quite sure about this)
G|---------------------------------------------------------------------------|
D|---------------------------------------------------------------------------|
A|8--------------------------------------------------------------------------|
E|----------------8---------------6------------------------------------------|
B|----------------------------------------8-------6--------------------------|

G|---------------------------------------------------------------------------|
D|---------------------------------------------------------------------------|
A|---------------------------------------------------------------------------|
E|--------6-------------------------------6-----------------------8----------|
B|4---------------6---------------4---------------8--------------------------|

At 4:28 Play the same riff as before twice, fading out during the second repetition (around 4:39)
G|--------------12--12--12--15-----------------10-10-10----------------------|
D|-10-10-10-12------------------13--13--13--10----------10-------------------|
A|------------10--10--10--10------------------8--8--8--8---------------------|
E|8--8--8--8------------------11--11--11--11---------------------------------|
B|---------------------------------------------------------------------------|

Repeat the riff from 4:45 to 6:05
G|--------------12--12--12--15-----------------10-10-10----------------------|
D|-10-10-10-12------------------13--13--13--10----------10-------------------|
A|------------10--10--10--10------------------8--8--8--8---------------------|
E|8--8--8--8------------------11--11--11--11---------------------------------|
B|---------------------------------------------------------------------------|

At 6:56, let the part fade in and repeat 3 times
G|---------------------------------------------------------------------------|
D|---------------------------------------------------------------------------|
A|--------10----------------8------------------------------------------------|
E|8----------------11--------------------------------------------------------|
B|---------------------------------------------------------------------------|

Cheers!
===============================================================================
Добавлено: 29.07.2015
Вам также может быть интересно:
Другие материалы по этой песне:
  • Аккорды и текст

Страница создана 29.07.2015
http://primanota.ru/trentemoller/take-me-into-your-skin-chords.htm
Привет, Гость.
Предлагаем пройти революционный курс по гитаре.
Подарок от PrimaNota.Ru, забирай!