PrimaNota.ru - самый крупный в мире бесплатный архив песенных текстов, аккордов, табулатур и нот


Trentemoller - Halt And Catch Fire Theme - бас-таба, видео

Регистрация Запомнить меня
Войти через:  Facebook Google Twitter Vk Yandex Mail.ru

Trentemoller - Halt And Catch Fire Theme - бас-таба, видео

Печатать
Просмотров: 96
Halt and Catch Fire Theme
Trentemoller

Tabbed by: jaronthebassist

Tempo = 127

G |--14.11.12.16.--|----------------------------|----------------------------|
D |----------------|----------------------------|----------------------------|
A |----------------|----------------------------|--------------3--3----------|
E |----------------|--5--5----------------------|--3--3----------------------|


----------------------------|-------|----------------------------|
----------------------------|-------|----------------------------|
----------------------------|-------|----------------------------|
--1--1----------------------|-------|--5--5----------------------|


----------------------------|----------------------------|
----------------------------|----------------------------|
--------------3--3----------|----------------------------|
--3--3----------------------|--5--5----------------------|


----------------------------|----------------------------|
----------------------------|----------------------------|
--5--5--------1--1----------|----------------------------|
----------------------------|--5--5----------------------|


----------------------------|----------------------------|
----------------------------|----------------------------|
--------------3--3----------|----------------------------|
--3--3----------------------|--1--1----------------------|


----------------------------|----------------------------|-------|-------||
--------------3--3--3--3----|--6--6--6--6--6--6--6--6----|-------|-------||
--5--5-----5----------------|----------------------------|-------|-------||
----------------------------|----------------------------|--5L---|--5----||

Legend
L - tied note
. - staccato
Добавлено: 03.12.2015
Другие материалы по этой песне:
  • Аккорды и текст

Страница создана 03.12.2015
http://primanota.ru/trentemoller/halt-and-catch-fire-theme-chords.htm
Привет, Гость.
Предлагаем пройти революционный курс по гитаре.
Подарок от PrimaNota.Ru, забирай!