PrimaNota.ru - самый крупный в мире бесплатный архив песенных текстов, аккордов, табулатур и нот


Trentemøller - Vamp - бас-таба, видео

Регистрация Запомнить меня
Войти через:  Facebook Google Twitter Vk Yandex Mail.ru

Trentemøller - Vamp - бас-таба, видео

Печатать
Просмотров: 55
Авторы музыки: Trentemøller

Main riff
G|----------------|
D|----------------|
A|----------------|
E|-x--/3-/3--0-0--| x3

G|----------------|
D|----------------|
A|----------------|
E|-x--/6-/6--5----| x3

2nd round little high fills:

G|--12-12--|-12-12--|-12-14---|--12-12-|
D|---------|--------|---------|--------|
A|---------|--------|---------|--------|
E|---------|--------|---------|--------|

Around 3:28
G|----------------|
D|----------------|
A|----------------|
E|-x--/6-/6--3-3--| x3

G|----------------|
D|----------------|
A|----------------|
E|-x--/9-/9--8-8--| x3

After that back to main riff 
Добавлено: 30.05.2016
Вам также может быть интересно:
Другие материалы по этой песне:
  • Аккорды и текст

Страница создана 30.05.2016
http://primanota.ru/trentemller/vamp-chords.htm
Привет, Гость.
Предлагаем пройти революционный курс по гитаре.
Подарок от PrimaNota.Ru, забирай!