PrimaNota.ru - самый крупный в мире бесплатный архив песенных текстов, аккордов, табулатур и нот


Trentemøller - Still On Fire - бас-таба, видео

Регистрация Запомнить меня
Войти через:  Facebook Google Twitter Vk Yandex Mail.ru

Trentemøller - Still On Fire - бас-таба, видео

Печатать
Просмотров: 106
Уроки эстрадного вокала в Санкт-Петербурге
Riff 1 (slide is optional)
G|-----------|-------------|-----------|-------------|
D|-----------|-------------|-----------|-------------|
A|-----------|-------------|-----------|-------------|
E|-5-5-------|-5-5---6-6---|-5-5-------|-/8-8---6-6--|

1:27 Riff 2 (synth-riff)
G|------------|-----------|-----------|-------------|
D|------------|-----------|-----------|-------------|
A|------------|-----------|-----------|-------------|
E|-5---3/5---3/5---3/6---3/5---3/5---3/8---3/6---3--|

1:57 Riff 3 (first time start on the '*')
G|-----*-----------|-----------------|
D|-----7-------7---|-----7-------8---|
A|-----------------|-----------------|
E|-5-5---3-5-5---3-|-5-5---3-6-6---6-|

G|-----------------|------------------|
D|-----7-------7---|-----10-------8---|
A|-----------------|------------------|
E|-5-5---3-5-5---5-|-8-8----8-6-6---6-|


2:27 Riff 4
G|-----------------|----------------|
D|-----7-7-----7---|-----7-------8--|
A|-----------------|----------------|
E|-5-5-----5-5---3-|-5-5---5-6-6----|

G|-----------------|----------------|
D|-----7-7-----7---|-----10------8--|
A|-----------------|----------------|
E|-5-5-----5-5---3-|-8-8-----6-6----|

2:44 Riff 5
G|-----------------|-----------------|
D|-----------------|-----------------|
A|-----------------|-----------------|
E|-5-5-5-5-5-5-5-5-|-5-5-5-5-5-5-5-5-|

G|-----------------|-----------------|
D|-----------------|-----------------|
A|-----------------|-----------------|
E|-5-5-5-5-5-5-5-5-|-1-1-1-1-8-8-8-8-|

Riff 1
Riff 4 (last bar of 2nd time is a rest)
Riff 1
Riff 2
Riff 1 till the end
End on

G|-----------|
D|-----------|
A|-----------|
E|-5---------|
Добавлено: 30.05.2016
Другие материалы по этой песне:
  • Аккорды и текст

Страница создана 30.05.2016
http://primanota.ru/trentemller/still-on-fire-chords.htm
Привет, Гость.
Предлагаем пройти революционный курс по гитаре.
Подарок от PrimaNota.Ru, забирай!