PrimaNota.ru - самый крупный в мире бесплатный архив песенных текстов, аккордов, табулатур и нот


Trent Dabbs And Amy Stroup - Love You Good - аккорды и текст, видео

Регистрация Запомнить меня
Войти через:  Facebook Google Twitter Vk Yandex Mail.ru

Trent Dabbs And Amy Stroup - Love You Good - аккорды и текст, видео

Печатать
Просмотров: 94
Love You Good
Trent Dabbs And Amy Stroup
Love You Good (Trent Dabbs & Amy Stroup)

(Capo on the 6th fret)

Strumming pattern: pick lowest string, then strum downward

Chords:
   E   A  F#m  B  C#m  C  Am
e--0---0---0---0---0---0---0--
b--0---2---0---0---0---5---1--
g--1---2---2---4---6---5---2--
d--2---2---4---4---6---5---2--
a--2---0---4---2---4---3---0--
e--0---x---x---x---x---x---x--


Intro: E


Intro/Verse Riff (Verse 1 & 2):
e------------------------------
b------------------------------
g------------------------------
d---4-2-4-2----4-2-4-2--(x2)---
a------------------------------
e------------------------------


Verse 1:
E
One look
     A                E
Was all it took from you
E
One look
      A                  E
And then my heart was through
E
My lines
A                     E
Were they worth your time?


Chorus:
                        A (strum once)
It's not as hard as I know you (we) make it
A
Love you good
A
Tell me where to start, I'm dying
E
Love you good
E
I know it takes a while to find it
A               
Love you good
A                          F#m   B            E       A
Yes, I do believe that if everything that we need is here
A                    B          E
Then tell me how to love you good


Chorus Riff:
e---7----9---------------5------7------------(7)--5---
b------------9-(x3)----------------------9------------
g-----------------------------------------------------
d-----------------------------------------------------
a-----------------------------------------------------
e-----------------------------------------------------
  (love you good ...)   (everything ... need is here)


Chorus Ending Riff (also in Verse 2):
e------------------------------------
b------4-5-4-5-4-2-------------------
g------------------4-1-4-(x3)-1------
d------------------------------------
a------------------------------------
e------------------------------------


Verse 2:
E
Sidelines
        A               E
We've waited our whole life
E
To find
   A                    E
A love that feels this right
E
Make room
        A                    E
Don't waste your time with doubts


(Chorus)


Bridge:
C#m              C
Well everything,
                 B
It feels so new, 
    A  Am  E
So new


(Chorus)


Enjoy!
-caloyp, diannedlr, maya & luna
Добавлено: 03.01.2016
Другие материалы по этой песне:
  • Аккорды и текст

Страница создана 03.01.2016
http://primanota.ru/trent-dabbs-and-amy-stroup/love-you-good-chords.htm
Привет, Гость.
Предлагаем пройти революционный курс по гитаре.
Подарок от PrimaNota.Ru, забирай!