PrimaNota.ru - самый крупный в мире бесплатный архив песенных текстов, аккордов, табулатур и нот


Tremonti - Radical Change - таба, видео

Регистрация Запомнить меня
Войти через:  Facebook Google Twitter Vk Yandex Mail.ru

Tremonti - Radical Change - таба, видео

Печатать
Просмотров: 144
Уроки эстрадного вокала в Санкт-Петербурге
Авторы музыки: Mark Tremonti
Авторы текста: Mark Tremonti
Eb|-------------------------------------------------------------------------------------|
Ab|-------------------------------------------------------------------------------------|
Gb|-------------------------------------------------------------------------------------|
Db|-------------------------------------------------------------------------------------|
Ab|-------------------------------10----------------------------------------10----------|
Db|-12---12---0---0---12-10-12-13----13-12-10-13---12---0---0---12-10-12-13----13-12-10-|
              ^   ^   ^  ^  ^  ^  ^  ^  ^  ^            ^   ^   ^  ^  ^  ^  ^  ^  ^  ^

-------------------------------------------------------------------------------------------|
-------------------------------------------------------------------------------------------|
-------------------------------------------------------------------------------------------|
-------------------------------------------------------------------------------------------|
-------------------------------10----------------------------------------------------------|
-13---12---0---0---12-10-12-13----13-12-10-13-13-13-13-13-13-13-13-12-12-12-12-10-10-10-10-|
           ^   ^   ^  ^  ^  ^  ^  ^  ^  ^  ^  ^  ^  ^  ^  ^  ^  ^  ^  ^  ^  ^  ^  ^  ^  ^
^ designates palm mute
Добавлено: 23.11.2015
Другие материалы по этой песне:
  • Аккорды и текст

Страница создана 23.11.2015
http://primanota.ru/tremonti/radical-change-chords.htm
Привет, Гость.
Предлагаем пройти революционный курс по гитаре.
Подарок от PrimaNota.Ru, забирай!