PrimaNota.ru - самый крупный в мире бесплатный архив песенных текстов, аккордов, табулатур и нот


Tremonti - My Last Mistake - таба, видео

Регистрация Запомнить меня
Войти через:  Facebook Google Twitter Vk Yandex Mail.ru

Tremonti - My Last Mistake - таба, видео

Печатать
Просмотров: 38
Уроки эстрадного вокала в Санкт-Петербурге
[Main riff]

PM     * * *** * *  * * *** * *** * ***      * * *    *
eb|---------------------------------------|---------------------|
Bb|---------------------------------------|---------------------|
Gb|---------------------------------------|---------------------|
Db|-2-------------3---------------------3-|-------5/3---2-3-5-3-|
Ab|-2-------------3---------------------3-|-------5/3---2-3-5-3-|
Eb|-0-0-0-000-0-0-1-0-0-000-0-000-0-000-1-|-0-0-0-----0---------|


[Verse 1]

PM                       * * *** * *    * * *** * *** * ***   * * *     *
eb|------0~-0~--0--0--------------------------------------------------------------|
Bb|------0~-0~--0--0--------------------------------------------------------------|
Gb|-4~---4~-4~--3~-2~-------------------------------------------------------------|Play x2
Db|-2~---5~-----4~-3~--2--------------3---------------------3-------5/3---2-3-5-3-|
Ab|-2~---5~-----4~-3~--2--------------3---------------------3-------5/3---2-3-5-3-|
Eb|-0~---3~-----2~-1~--0-0-0-000-0-0--1-0-0-000-0-000-0-000-1-0-0-0-----0---------|


[Pre-Chorus]

PM    * * *** * *   * * *** * *** * ***     * *      
eb|---------------------------------------|------------|
Bb|---------------------------------------|------------|
Gb|---------------------------------------|------------|
Db|-2-------------3---------------------3-|------12\\\-|
Ab|-2-------------3---------------------3-|-3-3--12\\\-|
Eb|-0-0-0-000-0-0-1-0-0-000-0-000-0-000-1-|-1-1--12\\\-|
                                                 (Big slide down)

[Chorus]
PM                                                            * * * *
eb|----------------3---3-3-3-3------------------------------------------|
Bb|----------------x---x-x-x-x------------------------------------------|
Gb|----------------0---0-0-0-0----7--7-7-7-7----5--5-5-5-5--------------|
Db|-2---2-2-2-2----0---0-0-0-0----7--7-7-7-7----5--5-5-5-5------------3-|
Ab|-2---2-2-2-2----x---x-x-x-x----5--5-5-5-5----3--3-3-3-3----2-2-2-2-3-|
Eb|-0---0-0-0-0----3---3-3-3-3----5--5-5-5-5----3--3-3-3-3----0-0-0-0-1-|
                                                                

[Chorus: part 2]

eb|----------------3---3-3-3-3-------------------------------------|
Bb|----------------x---x-x-x-x-------------------------------------|
Gb|----------------0---0-0-0-0----7--7-7-7-7----5--5-5-5-5----4~---|
Db|-2---2-2-2-2----0---0-0-0-0----7--7-7-7-7----5--5-5-5-5----2~---|
Ab|-2---2-2-2-2----x---x-x-x-x----5--5-5-5-5----3--3-3-3-3----2~---|
Eb|-0---0-0-0-0----3---3-3-3-3----5--5-5-5-5----3--3-3-3-3----0~---|
                                                              Let this chord ring


[Bridge: part 1]

eb|--------------------|
Bb|--------------------|
Gb|--------------------|
Db|-2-5-3---3---3-2~~~-|
Ab|-2-5-3---3---3-2~~~-|
Eb|-0-3-1-0-1-X-1-0~~~-|


[Bridge part 2]

(Played During Solo)

PM  * *     *   *     * *** * * * * *       * * * * * *     * *
eb|-----------------------------------|---------------------------|
Bb|-----------------------------------|-5-5-------------3-3-----3-|
Gb|-----------------------------------|-X-X-------------X-X-----X-|
Db|-----5-3---3---3-2-----------------|-5-5-------------3-3-----3-|
Ab|-----5-3---3---3-2-----------------|---------------------------|
Eb|-0-0-3-1-0-1-0-1-0-0-000-0-0-0-0-0-|-----0-0-0-0-0-0-----0-0---|


[Outro: part 1]

PM        *     
eb|------------------|--------------------|
Bb|------------------|-5-5-5//\\3-3-3-3-3-|
Gb|------------------|-X-X-X//\\X-X-X-X-X-|x2
Db|-2-5-3---3---3-2~-|-5-5-5//\\3-3-3-3-3-|
Ab|-2-5-3---3---3-2~-|--------------------|
Eb|-0-3-1-0-1-X-1-0~~|~~~~~~~~~~~~~~~~~~~~|
             
This part on the sneak peek video, Mark slides up and back down the neck between the chords
Let the open low E ring and fade through the higher notes.


[Outro: part 2] 

(Played Until The End Of The Song)

PM  * *     *   *     * *** * * * * *       * * * * * *     * *
eb|-----------------------------------|---------------------------|
Bb|-----------------------------------|-5-5-------------3-3-----3-|
Gb|-----------------------------------|-X-X-------------X-X-----X-|
Db|-----5-3---3---3-2-----------------|-5-5-------------3-3-----3-|
Ab|-----5-3---3---3-2-----------------|---------------------------|
Eb|-0-0-3-1-0-1-0-1-0-0-000-0-0-0-0-0-|-----0-0-0-0-0-0-----0-0---|


***********************************
| /   Slide up
| \   Slide down
| x   Dead note
| PM  Palm mute
| ~   Vibrato
***********************************
Добавлено: 22.11.2017
Другие материалы по этой песне:
  • Аккорды и текст

Страница создана 22.11.2017
http://primanota.ru/tremonti/my-last-mistake-chords.htm
Привет, Гость.
Предлагаем пройти революционный курс по гитаре.
Подарок от PrimaNota.Ru, забирай!