PrimaNota.ru - самый крупный в мире бесплатный архив песенных текстов, аккордов, табулатур и нот


Tremonti - Leave It Alone - текст песни, таба, видео

Регистрация Запомнить меня
Войти через:  Facebook Google Twitter Vk Yandex Mail.ru

Tremonti - Leave It Alone - текст песни, таба, видео

Печатать
Просмотров: 17
Уроки эстрадного вокала в Санкт-Петербурге
Song:   Tremonti - Leave it Alone
Tuning: Drop B  (B F# B E G# C#)
Tabbed by jjhand, thanks to some help from DPGrimsley's "Mark Tremonti" tab


[Intro]
C#|--------------------------------------------------------|
G#|--------------------------------------------------------|
E |--------------------------------------------------------|
B |-------1p0---0------1p0----------1p0----------1p0-------| play 2x, leave out the slide on repeat
F#|--------------------------3~-----------1------------0-0-| 
B |-15\-0-----1------0-----1------0-----1------0-----1-----|

|------------------------------------------------------|
|------------------------------------------------------|
|------------------------------------------------------|
|---1p0---0------1p0------------1p0----------1p0-------|
|----------------------3ph------------1------------0-0-|
|-0-----1------0-----1--------0-----1------0-----1-----|

|-------------------------------------------------------|-----------------|
|-------------------------------------------------------|-----------------|
|-------------------------------------------------------|-----------------|
|---1p0---0------1p0-------------1p0----------1p0-------|-----------------|
|----------------------3ph~~-----------1------------0-0-|-----------------|
|-0-----1------0-----1---------0-----1------0-----1-----|-0---------------|




[Verse 1]
C#|-------------------------------------------|--------------------------------|
G#|-------------------------------------------|--------------------------------|
E |-5----5--5--5--5-x-x-3----3--3--3----------|-------------------10-10-10-9---|
B |-5----5--5--5--5-x-x-3----3--3--3--x-x-3-2-|-0------3-3-2-0-----x--x--x-x---|
F#|-3----3--3--3--3-x-x-1----1--1--1--x-x-3-2-|-0------3-3-2-0-----8--8--8-7---|
B |-----------------------------------x-x-3-2-|-0------3-3-2-0-----------------|

|-------------------------------------------|--------------------------------|
|-------------------------------------------|--------------------------------|
|-5----5--5--5--5-x-x-3----3--3--3----------|-------------------10-10-10-12--|
|-5----5--5--5--5-x-x-3----3--3--3--x-x-3-2-|-0------3-3-2-0-----x--x--x--x--|
|-3----3--3--3--3-x-x-1----1--1--1--x-x-3-2-|-0------3-3-2-0-----8--8--8-10--|
|-----------------------------------x-x-3-2-|-0------3-3-2-0-----------------|

|-------------------------------------------|--------------------------------|
|-------------------------------------------|--------------------------------|
|-5----5--5--5--5-x-x-3----3--3--3----------|-------------------10-10-10-9---|
|-5----5--5--5--5-x-x-3----3--3--3--x-x-3-2-|-0------3-3-2-0-----x--x--x-x---|
|-3----3--3--3--3-x-x-1----1--1--1--x-x-3-2-|-0------3-3-2-0-----8--8--8-7---|
|-----------------------------------x-x-3-2-|-0------3-3-2-0-----------------|

|----------------------------------------|--------------------------------|
|----------------------------------------|--------------------------------|
|-5----5--5--5--5-x-x-3~-----------------|--------------------------------|
|-5----5--5--5--5-x-x-3~-----------------|---------------x\---------------|
|-3----3--3--3--3-x-x-1~-----------------|---------------x\--pick scrape--|
|----------------------------------------|---------------x\---------------|




[Chorus]

C#|--------------------------------------|-----------0----------------0------|
G#|--------------------------------------|-----------5----------------5------|
E |--------------------------------------|-7----7----7------6----6----6------|
B |--------------------------------------|-7----7----7------7----7----7------|  play 2x
F#|-2----2----2------5----5----5----5----|-5----5----5------4----4----4------|
B |-2----2----2------5----5----4----4----|-0----0----0-----------------------|


|-------------------------------------------|
|-------------------------------------------|
|-------------------------------------------|
|-12----12-12-12----12-12-12-12~------x\----|
|-10----10-10-10----10-10-10-10~------x\----|
|-10----10-10-10----10-10-10--8~------x\----|




[Pre-Verse]

|------------------------------|--------------------------|
|------------------------------|--------------------------|
|------------------------------|--------------------------|
|-------1p0---0------1p0-------|---1p0----------1p0-------|
|--------------------------3~--|---------1------------0-0-| 
|-15\-0-----1------0-----1-----|-0-----1------0-----1-----|

|----------------------------|--------------------------|
|----------------------------|--------------------------|
|----------------------------|--------------------------|
|---1p0---0------1p0---------|---1p0----------1p0-------|
|----------------------3ph~~-|---------1------------0-0-|
|-0-----1------0-----1-------|-0-----1------0-----1-----|



[Verse 2]

|-------------------------------------------|--------------------------------|
|-------------------------------------------|--------------------------------|
|-5----5--5--5--5-x-x-3----3--3--3----------|-------------------10-10-10-9---|
|-5----5--5--5--5-x-x-3----3--3--3--x-x-3-2-|-0------3-3-2-0-----x--x--x-x---|
|-3----3--3--3--3-x-x-1----1--1--1--x-x-3-2-|-0------3-3-2-0-----8--8--8-7---|
|-----------------------------------x-x-3-2-|-0------3-3-2-0-----------------|

|-------------------------------------------|--------------------------------|
|-------------------------------------------|--------------------------------|
|-5----5--5--5--5-x-x-3----3--3--3----------|-------------------10-10-10-12--|
|-5----5--5--5--5-x-x-3----3--3--3--x-x-3-2-|-0------3-3-2-0-----x--x--x--x--|
|-3----3--3--3--3-x-x-1----1--1--1--x-x-3-2-|-0------3-3-2-0-----8--8--8-10--|
|-----------------------------------x-x-3-2-|-0------3-3-2-0-----------------|

|-------------------------------------------|--------------------------------|
|-------------------------------------------|--------------------------------|
|-5----5--5--5--5-x-x-3----3--3--3----------|-------------------10-10-10-9---|
|-5----5--5--5--5-x-x-3----3--3--3--x-x-3-2-|-0------3-3-2-0-----x--x--x-x---|
|-3----3--3--3--3-x-x-1----1--1--1--x-x-3-2-|-0------3-3-2-0-----8--8--8-7---|
|-----------------------------------x-x-3-2-|-0------3-3-2-0-----------------|

|----------------------------------------|--------------------------------|
|----------------------------------------|--------------------------------|
|-5----5--5--5--5-x-x-3~-----------------|--------------------------------|
|-5----5--5--5--5-x-x-3~-----------------|---------------x\---------------|
|-3----3--3--3--3-x-x-1~-----------------|---------------x\--pick scrape--|
|----------------------------------------|---------------x\---------------|




[Chorus 2]

|--------------------------------------|-----------0----------------0------|
|--------------------------------------|-----------5----------------5------|
|--------------------------------------|-7----7----7------6----6----6------|
|--------------------------------------|-7----7----7------7----7----7------|  play 4x
|-2----2----2------5----5----5----5----|-5----5----5------4----4----4------|
|-2----2----2------5----5----4----4----|-0----0----0-----------------------|


|-------------------------------------------|
|-------------------------------------------|
|-------------------------------------------|
|-12----12-12-12----12-12-12-12~------x\----|
|-10----10-10-10----10-10-10-10~------x\----|
|-10----10-10-10----10-10-10--8~------x\----|




[Bridge]

play 4x
  
C#|-----------------------------------------------------|
G#|-----------------------------------------------------|
E |--------0-------------0------------0-----------0-----|
B |-----12---12-------11---11-------4---4-------4---0---|
F#|---9---------9---9---------9---0-------0---0---------|
B |-9-------------9-------------0-----------0-----------|

|------------------------------------------------------|
|------------------------------------------------------|
|--------0------------0------------0------------0------|
|-----14---14------14---14\-----12---12------11---11---|  
|---12-------12--12------------9--------9---9--------9-|
|-11-----------11------------9------------9------------|



[Solo]

Start after bridge plays 2x
|-------|------------------------------------|---------------9b10r--------------------|
|-------|-------------------12------10\9-----|----------5/10-------10-----------------|
|---7-9-|-pb11r9-11b14__r11----11--------9---|-7----------------------11p9-6b7r-------|
|-9-----|------------------------------------|----------------------------------7-4---|
|-------|------------------------------------|--------------------------------------7-|
|-------|------------------------------------|----------------------------------------|

|--------------------------------------------------------------|
|--------------------------------------------------------------|
|--------------------------------------------------------------|
|--------------------------------------------------------------|
|--------------------------------------------------------------|
|-7b9_____________________________r7---------------------------|


|----------------------------------------------------------|
|-----10----------------------------7-----9-----9b10~------|
|-9/11---11\9p7-----------7-----9---7-----9-----9b11~------|
|---------------9-7-9-7h9---7h9---9------------------------|
|----------------------------------------------------------|
|----------------------------------------------------------|


Guitar 2 starts Heavy Solo Rhythm Riff (first 2 sets of tab lines are 2 beats due to line length)  
|-17-------------------14~----------14--|
|-17b19-17b19r17p15-17-----------17-----|
|---------------------------------------|
|---------------------------------------| 
|---------------------------------------|
|---------------------------------------|

|-14h17p14----14h17p14----14h17p14----14h19p14----14h19p14----14h19p14----|
|----------17----------17----------17----------17----------17----------17-|
|-------------------------------------------------------------------------| 
|-------------------------------------------------------------------------|
|-------------------------------------------------------------------------|
|-------------------------------------------------------------------------|

|-16h17p16----16-17-19h21p19----19-21-22-21b22r21p19----------------------------------------------|
|----------19----------------22----------------------22p19----19-22-19-----------------------15---|
|----------------------------------------------------------21----------21\19-16\14-16-14---14--14-|
|-------------------------------------------------------------------------------------------------|
|-------------------------------------------------------------------------------------------------|
|-------------------------------------------------------------------------------------------------|

|-------------------------------------------------------------|
|-15------17------14------15------14-----------15--------15---|
|------14------14------14------14-16b18---------------14----14|
|-------------------------------------------------------------|
|-------------------------------------------------------------|
|-------------------------------------------------------------|

|-----------------14-----15-------17\------------------------19-|
|-15------17--------------------------------------------19-22---|
|------14------14------14------14------------------19-21--------|
|---------------------------------------------19-21-------------|
|----------------------------------------19-21------------------|
|---------------------------------------------------------------|


  Solo Continues through Final Chorus (rhythm part is below)  
|-22b24_________~~~-----22b24r22p19-|-22~------21-22-21---------------|
|-----------------------------------|-------------------22------------|
|-----------------------------------|----------------------21~--------|
|-----------------------------------|-----------------------------16\-|
|-----------------------------------|---------------------------------|
|-----------------------------------|---------------------------------|

|-----------------------------|-------------------------------------|
|-----------------------------|-------------------------------------|
|-----------------------------|-------------------------------------|
|-12b14_____~~------b14r12p11-|-12~~~~-----11h12p11-----------------|
|-----------------------------|---------------------12--------------|
|-----------------------------|------------------------14~~~\-------|



[Final Chorus]

|--------------------------------------|-----------0----------------0------|
|--------------------------------------|-----------5----------------5------|
|--------------------------------------|-7----7----7------6----6----6------|
|--------------------------------------|-7----7----7------7----7----7------|  play 4x
|-2----2----2------5----5----5----5----|-5----5----5------4----4----4------|
|-2----2----2------5----5----4----4----|-0----0----0-----------------------|

|-------------------------------------------|
|-------------------------------------------|
|-------------------------------------------|
|-12----12-12-12----12-12-12-12~------x\----|
|-10----10-10-10----10-10-10-10~------x\----|
|-10----10-10-10----10-10-10--8~------x\----|




[Outro]

C#|--------------------------------------------------------|
G#|--------------------------------------------------------|
E |--------------------------------------------------------|
B |-------1p0---0------1p0----------1p0----------1p0-------| 
F#|--------------------------3~-----------1------------0-0-| 
B |-15\-0-----1------0-----1------0-----1------0-----1-----|

C#|----------------------------------------------------|
G#|----------------------------------------------------|
E |----------------------------------------------------|
B |---1p0---0------1p0----------1p0----------1p0-------| 
F#|----------------------3~-----------1------------0-0-| 
B |-0-----1------0-----1------0-----1------0-----1-----|

C#|------------------------------------------------------|
G#|------------------------------------------------------| 
E |------------------------------------------------------|
B |---1p0---0------1p0------------1p0----------1p0-------|
F#|----------------------3ph~-----------1------------0-0-|
B |-0-----1------0-----1--------0-----1------0-----1-----|

C#|--------------------------------------------------------|
G#|--------------------------------------------------------|
E |--------------------------------------------------------|
B |---1p0---0------1p0-------------1p0----------1p0--PM-PM-|
F#|----------------------3phb------------1------------1-0--|
B |-0-----1------0-----1---------0-----1------0-----0-1-0--|








************************************

| /   slide up
| \   slide down
| h   hammer-on
| p   pull-off
| ~   vibrato
| ph  pinch harmonic
| x\  pick scrape
| PM  palm mute
| b   Bend
| pb  Pre-bend
| br  Bend release
| pbr Pre-bend release
| brb Bend release bend
| phb Pinch harmonic bend
| __  hold (let note ring) 


************************************
Добавлено: 22.11.2017
Другие материалы по этой песне:
  • Аккорды и текст

Страница создана 11.01.2014
http://primanota.ru/tremonti/leave-it-alone-chords.htm
Привет, Гость.
Предлагаем пройти революционный курс по гитаре.
Подарок от PrimaNota.Ru, забирай!