PrimaNota.ru - самый крупный в мире бесплатный архив песенных текстов, аккордов, табулатур и нот


Tremonti - Another Heart - таба, видео

Регистрация Запомнить меня
Войти через:  Facebook Google Twitter Vk Yandex Mail.ru

Tremonti - Another Heart - таба, видео

Печатать
Просмотров: 104
Авторы музыки: Mark Tremonti
Авторы текста: Mark Tremonti
-------------------------------------------------------------------------------
                             Another Heart - Tremonti
-------------------------------------------------------------------------------
Tabbed by: VenAdi
E-mail: cvaguitar@gmail.com

Tuning:Drop C#

Note: Amazing song eagerly waiting for the double album \m/
      sorry but no tab for the guitar solo.

00:00, 01:11, 03:35
D#|---------------------------------------------------------------------------|
A#|---------------------------------------------------------------------------|
F#|--------3-----------------------3------------------------------------------|
C#|--4-3-1-3--3-4-3-4-4-3-1--3-4-1-3--0---------------------------------------| x2
G#|--4-3-1-1--3-4-3-4-4-3-1--3-4-1-1--0---------------------------------------|
C#|--4-3-1----3-4-3-4-4-3-1--3-4-1----0-0--3-3-3-3-5-5-5-5-7-7-7-7-9-9--------|
              * *            * * *    *    Hit all the N. Harmonics

00:08
second time ends with
D#|---------------------------------------------------------------------------|
A#|---------------------------------------------------------------------------|
F#|---------------------------------------------------------------------------|
C#|---------------------------------------------------------------------------|
G#|---------------------------------------------------------------------------|
C#|--0-12-0-0-----------------------------------------------------------------|
     *    *

00:20, 01:20
Gtr1.
D#|---------------------------------------------------------------------------|
A#|---------------------------------------------------------------------------|
F#|--7-------7--2-------2--2-------2--6-------6-------------------------------|
C#|---------------------------------------------------------------------------| x4
G#|---------------------------------------------------------------------------|
C#|--8--8--8----3--3--3----0--0--0----7--7--7---------------------------------|

00:30, 01:30
Gtr2.
D#|---------------------------------------------------------------------------|
A#|---------------------------------------------------------------------------|
F#|---------------------------------------------------------------------------|
C#|---------------------------------------------------------------------------| x2
G#|---------------------------------------------------------------------------|
C#|--88888888---33333333---00000000---77777777--------------------------------|
     ********   ********   ********   ********

00:40, 01:40, 03:04
D#|---------------------------------------------------------------------------|
A#|---------------------------------------------------------------------------|
F#|---7-7-7-7--5-5-5--111111-5-5-5--8-8-8--5-5-5--7-7-7-x-x-x-x---------------|
C#|---x-x-x-x--x-x-x--x-x-x--x-x-x--x-x-x--x-x-x--x-x-x-x-x-x-x---------------| x2
G#|---5-5-5-5--3-3-3--9-9-9--3-3-3--6-6-6--3-3-3--5-5-5-x-x-x-x---------------|
C#|-----------------------------------------------------x-x-x-x---------------|

00:50, 01:51, 03:15
D#|---------------------------------------------------------------------------|
A#|---------------------------------------------------------------------------|
F#|--3--3-3----------5--5-5---------------------------------------------------|
C#|--3--3-3-x-x-3-3--5--5-5-x-x-5-5-------------------------------------------|
G#|--1--1-1-x-x-3-3--3--3-3-x-x-5-5-------------------------------------------|
C#|---------x-x-3-3---------x-x-5-5-------------------------------------------|

D#|---------------------------------------------------------------------------|
A#|---------------------------------------------------------------------------|
F#|--3--3-3----------5--5-5---------------------------------------------------|
C#|--3--3-3-x-x-3-3--5--5-5-x-x-5-x-3-----------------------------------------|
G#|--1--1-1-x-x-3-3--3--3-3-x-x-5-x-3-----------------------------------------|
C#|---------x-x-3-3---------x-x-5-x-3-----------------------------------------|

02:17
D#|---------------------------------------------------------------------------|
A#|---------------------------------------------------------------------------|
F#|---------------------------------------------------------------------------| 
C#|---------------------------------------------------------------------------|
G#|---------------------------------------------------------------------------|
C#|---0000000000-0------0----0000000000-0-0000000000-0--00000000000000000000--|
      **********  x2         **********    **********   ********************
02:33
D#|---------------------------------------------------------------------------|
A#|---------------------------------------------------------------------------|
F#|---------------------------------------------------------------------------|
C#|---------------------------------------------------------------------------|
G#|---------------------------------------------------------------------------|
C#|-1-4--0000000000-0--0-1-0-4--0000000000-13p0-10h12-------------------------|
         **********    *   *    **********

D#|---------------------------------------------------------------------------|
A#|---------------------------------------------------------------------------|
F#|---------------------------------------------------------------------------|
C#|---------------------------------------------------------------------------|
G#|---------------------------------------------------------------------------|
C#|-1-4--0000000000-0--0-1-0-4--0000000000-17\--------------------------------|
         **********    *   *    **********

Solo
02:43
D#|---------------------------------------------------------------------------|
A#|---------------------------------------------------------------------------|
F#|---------------------------------------------------------------------------|
C#|---------------------------------------------------------------------------|
G#|---------------------------------------------------------------------------|
C#|-1-4--0000000000-0--0-1-0-4--0000000000-0----------------------------------|
         **********    *   *    **********

D#|---------------------------------------------------------------------------|
A#|---------------------------------------------------------------------------|
F#|---------------------------------------------------------------------------|
C#|---------------------------------------------------------------------------|
G#|---------------------------------------------------------------------------|
C#|-1-4--0000000000-0--0-1-0-4--0000000000-17\--------------------------------|
         **********    *   *    **********
D#|---------------------------------------------------------------------------|
A#|---------------------------------------------------------------------------|
F#|---------------------------------------------------------------------------| x2
C#|---------------------------------------------------------------------------|
G#|---------------------------------------------------------------------------|
C#|-1-4--0000000000-0--0-1-0-4--0000000000-13p0-10h12-------------------------|
         **********    *   *    **********
03:04
D#|---------------------------------------------------------------------------|
A#|---------------------------------------------------------------------------|
F#|---7-7-7-7--5-5-5--111111-5-5-5--8-8-8--5-5-5--7-7-7-x-x-x-x---------------|
C#|---x-x-x-x--x-x-x--x-x-x--x-x-x--x-x-x--x-x-x--x-x-x-x-x-x-x---------------| x2
G#|---5-5-5-5--3-3-3--9-9-9--3-3-3--6-6-6--3-3-3--5-5-5-x-x-x-x---------------|
C#|-----------------------------------------------------x-x-x-x---------------|

03:25
D#|---------------------------------------------------------------------------|
A#|---------------------------------------------------------------------------|
F#|--3--3-3----------5--5-5---------------------------------------------------|
C#|--3--3-3-x-x-3-3--5--5-5-x-x-5-5-------------------------------------------|
G#|--1--1-1-x-x-3-3--3--3-3-x-x-5-5-------------------------------------------|
C#|---------x-x-3-3---------x-x-5-5-------------------------------------------|

D#|---------------------------------------------------------------------------|
A#|---------------------------------------------------------------------------|
F#|--3--3-3----------5--5-5---------------------------------------------------|
C#|--3--3-3-x-x-3-3--5--5-5-x-5-5-3-3-----------------------------------------|
G#|--1--1-1-x-x-3-3--3--3-3-x-5-5-3-3-----------------------------------------|
C#|---------x-x-3-3---------x-5-5-3-3-----------------------------------------|

D#|---------------------------------------------------------------------------|
A#|---------------------------------------------------------------------------|
F#|---------------------------------------------------------------------------|
C#|---------------------------------------------------------------------------|
G#|-------1--------------------1----------------------------------------------|
C#|-4-3-1----4-3-4-4-3-1--4-3----0---3-3-3-3-5-5-5-5-7-7-7-7-9-9--------------|
                                     Hit all the N. Harmonics 
D#|---------------------------------------------------------------------------|
A#|---------------------------------------------------------------------------|
F#|---------------------------------------------------------------------------|
C#|------------------------------0--0--0--------------------------------------|
G#|-------1--------------------1-0--0--0--------------------------------------|
C#|-4-3-1----4-3-4-4-3-1--4-3----0--0--0--------------------------------------|

P.S. This is one my initial attempts to tab a song, corrections are welcome.

************************************

| *   palm mute
| /   slide up
| \   slide down
| h   hammer-on
| p   pull-off
| ~   vibrato
| +   harmonic
| x   Mute note
| b   Bend
| pb  Pre-bend
| br  Bend release
| pbr Pre-bend release
| brb Bend release bend

************************************
Добавлено: 23.11.2015
Другие материалы по этой песне:
  • Аккорды и текст

Страница создана 23.11.2015
http://primanota.ru/tremonti/another-heart-chords.htm
Привет, Гость.
Предлагаем пройти революционный курс по гитаре.
Подарок от PrimaNota.Ru, забирай!