PrimaNota.ru - самый крупный в мире бесплатный архив песенных текстов, аккордов, табулатур и нот


Tremonti - All That Ive Got - таба, видео

Регистрация Запомнить меня
Войти через:  Facebook Google Twitter Vk Yandex Mail.ru

Tremonti - All That Ive Got - таба, видео

Печатать
Просмотров: 35
Tuning - Whole and a Half Step down, Double Drop D - B-F#-B-E-G#-B / B-Gb-B-E-Ab-B

I apologize for the timing, this is my first tab and I'm not familiar with how to write out the timing.


Intro -
 
 B|----------------------------------------|----------------------------------------|
G#|----------------------------------------|----------------------------------------|
 E|----------------------------------------|----------------------------------------|
 B|----------------0h1p0--------------0h1--|----------------0h1p0---------1--1------|
F#|---------0h1ph---------0h1p0--0h1-------|---------0h1p0---------0h1p0--1--1------|
 B|--0h1p0---------------------------------|--0h1p0-----------------------1--1------|



End Intro with -
     D
 B|----------------------------------------|----------------------------------------|
G#|--2~------------------------------------|----------------------------------------|
 E|--3~------------------------------------|----------------------------------------|
 B|--0~------------------------------------|----------------------------------------|
F#|--0~------------------------------------|--5--3--6~------------------------------|
 B|--0~------------------------------------|----------------------------------------|



Verse -

 B|----------------------------------------|
G#|----------------------------------------|
 E|----------------------------------------|
 B|----------------------------------------|
F#|--5h6p5--5h6p5--5h6ph--5h6p5--5h6p5~----|
 B|----------------------------------------|



Pre-Chorus -
     D    D    Cadd9                          Cadd9     Bb
 B|--0----0----0~--------------------------|--0----0----0---------------------------|
G#|--3----3----3~--------------------------|--3----3----3---------------------------|
 E|--2----2----0~--------------------------|--0----0----0---------------------------|
 B|--0----0----0~--------------------------|--0----0----0---------------------------|
F#|--0----0----3~--------------------------|--3----3----1---------------------------|
 B|--0----0--------------------------------|----------------------------------------|


 B|----------------------------------------|----------------------------------------|
G#|----------------------------------------|----------------------------------------|
 E|----------------------------------------|----------------------------------------|
 B|----------------0h1p0--------------0h1--|----------------0h1p0---------1--1------|
F#|---------0h1ph---------0h1p0--0h1-------|---------0h1p0---------0h1p0--1--1------|
 B|--0h1p0---------------------------------|--0h1p0-----------------------1--1------|

     D    D    Cadd9                          Cadd9     Bb
 B|--0----0----0~--------------------------|--0----0----0---------------------------|
G#|--3----3----3~--------------------------|--3----3----3---------------------------|
 E|--2----2----0~--------------------------|--0----0----0---------------------------|
 B|--0----0----0~--------------------------|--0----0----0---------------------------|
F#|--0----0----3~--------------------------|--3----3----1---------------------------|
 B|--0----0--------------------------------|----------------------------------------|



Chorus -
     Bb                G                      D                 Cadd9
 B|----------------------------------------|--0-----------------0-------------------|
G#|--3-----------------3-------------------|--3-----------------3-------------------|
 E|--3-----------------0-------------------|--2-----------------0-------------------|
 B|--3-----------------0-------------------|--0-----------------0-------------------|
F#|--1-----------------0-------------------|--0-----------------3-------------------|
 B|--------------------5-------------------|--0-------------------------------------|




Break (first part) -

 B|----------------------------------------|----------------------------------------|
G#|----------------------------------------|----------------------------------------|
 E|----------------------------------------|----------------------------------------|
 B|-----------------5----------------------|------------------5-----5h7-------------|
F#|------------0h5-----6-------------------|-------------0h5-----6-------5----------|
 B|--0-0--0h5------------------------------|--0--0--0h5-----------------------------|




Still working on the second part of the Break, I'll update the tab when I get it.
Добавлено: 14.08.2015
Другие материалы по этой песне:
  • Аккорды и текст

Страница создана 14.08.2015
http://primanota.ru/tremonti/all-that-ive-got-chords.htm
Привет, Гость.
Предлагаем пройти революционный курс по гитаре.
Подарок от PrimaNota.Ru, забирай!