PrimaNota.ru - самый крупный в мире бесплатный архив песенных текстов, аккордов, табулатур и нот


Trembling Hands - Monarchs - таба, видео

Регистрация Запомнить меня
Войти через:  Facebook Google Twitter Vk Yandex Mail.ru

Trembling Hands - Monarchs - таба, видео

Печатать
Просмотров: 89
Monarchs
Trembling Hands

http://tremblinghands.bandcamp.com/

tuning Drop C#
C#,G#,C#,F#,A#,D#

I made this tab with my guitar tuned in Drop C with a capo on 1st fret,
so I hope I did no mistakes translating it

hxchaos(at)hotmail(dot)com

I just tabbed one guitar, I guess the second one is quite similar,
with some arpeggios


Intro (x2)
|---------------------------------------------------------|
|---------------------------------------------------------|
|---4----4----7---9--2---p0--4----4----12--14---11--\9\---|
|---0----0----0------0-------0----0-----0---0---0---------|
|---------------------------------------------------------|
|---5----5---/9--(9)\4---(4)-5----5---/14-(14)--12--------|

|------0--------------------------------------------------|
|---------------------------------------------------------|
|---4----4----7---9--2---p0--4----4----12--14---11--\9\---|
|---0----0----0---0--0-------0----0-----0---0---0---------|
|---------------------------------------------------------|
|---5---(5)--/9--(9)\4---(4)-5----5---/14-(14)--12--------|


Intro 2 (x2)
                             1.                   2.
|-(x16)(x5)(x3)(x5)(x3)(x16)|(x5)-(x3)-(x5)-(x3)-|--------------------|
|---------------------------|--------------------|--------------------|
|---4---7---9---2---0---4---|-12---14---11----9--|---12---14-11--12---|
|---0---0---0---0---x---0---|--0----0----0----0--|----0----0--0---0---|
|---------------------------|--------------------|--------------------|
|---5---9---9---4---4---5---|-14---14---12---12--|---14---14-12--12---|


Verse
on the same notes


Riff B /part 1/ (x2)
|---3-3333-3-3333-3-3333-777555---2-2222-2-2222-2-2222-2-2223---|
|---0-0000-0-0000-0-0000-000000---3-3333-3-3333-3-3333-3-3333---|
|---0-0000-0-0000-0-0000-000000---0-0000-0-0000-0-0000-0-0000---|
|---0-0000-0-0000-0-0000----------0-0000-0-0000-0-0000-0-0000---|
|---------------------------------0-0000-0-0000-0-0000-0-0000---|
|---2-2222-2-2222-2-2222----------0-0000-0-0000-0-0000-0-0000---|

Riff B /part 2/ (x2)
 1.
|----------------------------------------------------------|
|----------------------------------------------------------|
|----9---9-9-9-9--9---9-9-9-9-11--11111111-12--12121212----|
|----0---0-0-0-0--0---0-0-0-0--0---0-0-0-0--0---0-0-0-0----|
|------------------------------------------------------0---|
|---10--10101010-10--10101010-10--10101010-10--101010100---|

                                       2. end on:
|--------------------------------------|---------|
|--------------------------------------|---------|
|---7--7777-7--7777-7--7777-7--7777----|---6-----|
|---0--0000-0--0000-0--0000-0--0000----|---0-----|
|----------------------------------0---|---------|
|---9--9999-9--9999-9--9999-9--99990---|---7-----|


Verse
same notes, different rythm


Riff C /part 1/
|-----------------------------------------------|
|------------10----8--7------------7----7-8-5---|
|---7----7----7----7--7--6----6----6----6-6-6---|
|---0----0----0----0--0--0----0----0----0-0-0---|
|-----------------------------------------------|
|---9----9----9----9--9--7----7----7----7-7-7---|

Riff C /part 2/
|-------------------------------------------------------------------------|
|-------0-------0-------0-------0---------3-------3-------3-------3-------|
|-----4---4---4---4---4---4---4---4-----0---0---0---0---0---0---0---0-----|
|---0-------0-------0-------0---------4-------4-------4-------4-----------|
|-----------------------------------0---------------------------------0---|
|---5-------5-------5-------5-------0-2-------2-------2-------2-------0---|

|-------------------------------------------------------------------------|
|-------0-------0-------0-------0-----------------------------------------|
|-----4---4---4---4---4---4---4---4-----77777-----66666-----------9-7-6---|
|---0-------0-------0-------0-----------00000-----00000-------------------|
|-----------------------------------0-------------------------------------|
|---5-------5-------5-------5-------0---99999-----77777-------------------|

end on:
|--------------|
|--------------|
|---9---4------|
|-------0------|
|--------------|
|--(7)--5------|
Добавлено: 05.08.2015
Другие материалы по этой песне:
  • Аккорды и текст

Страница создана 05.08.2015
http://primanota.ru/trembling-hands/monarchs-chords.htm
Привет, Гость.
Предлагаем пройти революционный курс по гитаре.
Подарок от PrimaNota.Ru, забирай!