PrimaNota.ru - самый крупный в мире бесплатный архив песенных текстов, аккордов, табулатур и нот


Treble Spankers - Samira - таба, видео

Регистрация Запомнить меня
Войти через:  Facebook Google Twitter Vk Yandex Mail.ru

Treble Spankers - Samira - таба, видео

Печатать
Просмотров: 97
Уроки эстрадного вокала в Санкт-Петербурге
-------------------------------------------------------------------------------
                             Samira - Treble Spankers
-------------------------------------------------------------------------------

Tuning: Standard tuning
                                                     E~~~~~~~~
e|---------------------------------------------------0-----------|
B|---0---0---0---0---0---0---0---0---0---0---0---0---0-----------|
G|---------1---2---1---------------------------------1-----------|
D|-2---3---------------3---2---0---2---0-------------2-----------|
A|-----------------------------------------3---2-----2-----------|
E|---------------------------------------------------0-----------|
                                                     E~~~~~~~~
e|---------------------------------------------------0-----------|
B|---0---0---0---0---0---0---0---0---0---0---0-------0-----------|
G|-----1---2---4---5---4---2---1---------------------1-----------|
D|-2-------------------------------3---2---0---2-----2-----------|
A|---------------------------------------------------2-----------|
E|---------------------------------------------------0-----------|
                                                     E~~~~~~~~
e|---------------------------------------------------0-----------|
B|---0---0---0---0---0---0---0---0---0---0---0---0---0-----------|
G|-1---2---4---5---7---5---4---2---1---2---1---------1-----------|
D|---------------------------------------------3-----2-----------|
A|---------------------------------------------------2-----------|
E|---------------------------------------------------0-----------|
                                             E~~~~~~~~~
e|-------------------------------------------0-----------|
B|---0---0---0---0---0---0---0---0---0---0---0-----------|
G|-1---2---1---------------------------------1-----------|
D|-------------3---2---0---2---0-------------2-----------|
A|---------------------------------3---2-----2-----------|
E|-------------------------------------------0-----------|
                                                     E~~~~~~~~~~
e|---------------------------------------------------0------------|
B|---0---0---0---0---0---0---0---0---0---0---0---0---0------------|
G|---------1---2---4---5---7---5---4---2---1---------1------------|
D|-2---3---------------------------------------3-----2------------|
A|---------------------------------------------------2------------|
E|---------------------------------------------------0------------|

   p.m.......................
e|----------------------------------|
B|----------------------------------|
G|---------------------1-1--2-------|
D|-2--2-2-2-2-2--2-2-2-2-2--3-------|
A|-2--2-2-2-2-2--2-2-2-2-2--3-------|
E|-0--0-0-0-0-0--0-0-0-0-0--1-------|   x12

   p.m.......................
e|----------------------------------|
B|----------------------------------|
G|---------------------2-2--3-------|
D|-3--3-3-3-3-3--3-3-3-3-3--4-------|
A|-3--3-3-3-3-3--3-3-3-3-3--4-------|
E|-1--1-1-1-1-1--1-1-1-1-1--2-------|   x2

   p.m.......................
e|----------------------------------|
B|----------------------------------|
G|---------------------1-1--2-------|
D|-2--2-2-2-2-2--2-2-2-2-2--3-------|
A|-2--2-2-2-2-2--2-2-2-2-2--3-------|
E|-0--0-0-0-0-0--0-0-0-0-0--1-------|   x6


   p.m.......................
e|----------------------------------|
B|----------------------------------|
G|---------------------2-2--3-------|
D|-3--3-3-3-3-3--3-3-3-3-3--4-------|
A|-3--3-3-3-3-3--3-3-3-3-3--4-------|
E|-1--1-1-1-1-1--1-1-1-1-1--2-------|   x2

   p.m.......................
e|----------------------------------|
B|----------------------------------|
G|---------------------1-1--2-------|
D|-2--2-2-2-2-2--2-2-2-2-2--3-------|
A|-2--2-2-2-2-2--2-2-2-2-2--3-------|
E|-0--0-0-0-0-0--0-0-0-0-0--1-------|  x2

e|------------------------------------------------------------------------------|
B|-------------------------------0-------------------0--3-1-0-0-000-1-0---------|
G|-----------1--2-1-----------------2-1----------------------------------2-1----|
D|-2-22222h3--------3--2-22222h3--------3--2-22222h3-------------------------3--|
A|------------------------------------------------------------------------------|
E|------------------------------------------------------------------------------|   x2

   p.m.......................
e|----------------------------------|
B|----------------------------------|
G|---------------------1-1--2-------|
D|-2--2-2-2-2-2--2-2-2-2-2--3-------|
A|-2--2-2-2-2-2--2-2-2-2-2--3-------|
E|-0--0-0-0-0-0--0-0-0-0-0--1-------|   x8

   p.m.......................
e|----------------------------------|
B|----------------------------------|
G|---------------------2-2--3-------|
D|-3--3-3-3-3-3--3-3-3-3-3--4-------|
A|-3--3-3-3-3-3--3-3-3-3-3--4-------|
E|-1--1-1-1-1-1--1-1-1-1-1--2-------|   x2

   p.m.......................
e|----------------------------------|
B|----------------------------------|
G|---------------------1-1--2-------|
D|-2--2-2-2-2-2--2-2-2-2-2--3-------|
A|-2--2-2-2-2-2--2-2-2-2-2--3-------|
E|-0--0-0-0-0-0--0-0-0-0-0--1-------|   x6

   p.m.......................
e|----------------------------------|
B|----------------------------------|
G|---------------------2-2--3-------|
D|-3--3-3-3-3-3--3-3-3-3-3--4-------|
A|-3--3-3-3-3-3--3-3-3-3-3--4-------|
E|-1--1-1-1-1-1--1-1-1-1-1--2-------|   x2

   p.m.......................
e|----------------------------------|
B|----------------------------------|
G|---------------------1-1--2-------|
D|-2--2-2-2-2-2--2-2-2-2-2--3-------|
A|-2--2-2-2-2-2--2-2-2-2-2--3-------|
E|-0--0-0-0-0-0--0-0-0-0-0--1-------|   x2

Play the chord once at the places where a chord stands.
          Am~~~~                        F~~~~                         G~~~~                                
e|----------------------0-000-------------------------0-000------------------|
B|-------1-111------0-1-------3--3-1-3-1-111------0-1-------3--3-1-3-1-111-0-|
G|---1-2-------2--2--------------------------2--2----------------------------|
D|-2-------------------------------------------------------------------------|
A|---------------------------------------------------------------------------|
E|---------------------------------------------------------------------------|
                         Am~~~~                        Am~~~~                                                     
e|-------------------------------------------------------------|
B|---0-1-3-333-1--1-0---1-111----------1-111----------1-111----|
G|-1------------------2-------2--2-1-2-------2--2-1-2-------2--|
D|-------------------------------------------------------------|
A|-------------------------------------------------------------|
E|-------------------------------------------------------------|
                         F~~~~                         G~~~~
e|-------0-000-------------------------0-000-----------------------------------------|
B|---0-1-------3--3-1-3-1-111------0-1-------3--3-1-3-1-111-0----0-1-3-333-1--1-0----|
G|-2--------------------------2--2-----------------------------1------------------2--|
D|-----------------------------------------------------------------------------------|
A|-----------------------------------------------------------------------------------|
E|-----------------------------------------------------------------------------------|

   p.m.......................
e|----------------------------------|
B|----------------------------------|
G|---------------------1-1--2-------|
D|-2--2-2-2-2-2--2-2-2-2-2--3-------|
A|-2--2-2-2-2-2--2-2-2-2-2--3-------|
E|-0--0-0-0-0-0--0-0-0-0-0--1-------|  'till the end





************************************

| /   slide up
| \   slide down
| h   hammer-on
| p   pull-off
| ~   vibrato
| +   harmonic
| x   Mute note
| b   Bend
| pb  Pre-bend
| br  Bend release
| pbr Pre-bend release
| brb Bend release bend

************************************
Добавлено: 02.12.2014
Вам также может быть интересно:
Другие материалы по этой песне:
  • Аккорды и текст

Страница создана 02.12.2014
http://primanota.ru/treble-spankers/samira-chords.htm
Привет, Гость.
Предлагаем пройти революционный курс по гитаре.
Подарок от PrimaNota.Ru, забирай!