PrimaNota.ru - самый крупный в мире бесплатный архив песенных текстов, аккордов, табулатур и нот


Treble Spankers - Das Model - таба, видео

Регистрация Запомнить меня
Войти через:  Facebook Google Twitter Vk Yandex Mail.ru

Treble Spankers - Das Model - таба, видео

Печатать
Просмотров: 207
Уроки эстрадного вокала в Санкт-Петербурге
-------------------------------------------------------------------------------
                             Das Model - Treble Spankers
-------------------------------------------------------------------------------

Tuning: Standard tuning
Intro x2
e|---------------------|
B|---------------------|
G|---------------------|
D|---------------------|
A|---0-0-0-3-2-0-2-----|
E|-0---------------3-0-|

During the whole song an other guitar plays the intro during the Am and Em chords.
                              Am~~~~~~~~Em~~~~~~~~
e|-----------------------------0---------0---------|
B|-----------------------------1---------0---------|
G|-0-2~~5-4-2-4----------------2---------0---------|
D|---------------5-2~~---------2---------2---------|
A|-----------------------------0---------2---------|
E|---------------------------------------0---------|  x2
  
e|----------------------------------------------------------------------|
B|----------------------------------------------------------------------|
G|5555555555555555555555544444444444444444444444-2-0~~~~~0--0--0~~~~~~~-|
D|----------------------------------------------------------------------|
A|----------------------------------------------------------------------|
E|----------------------------------------------------------------------|

e|---------------------------------------------------------------------------|
B|---------------------------------------------------------------------------|
G|555555555555555555555554444444444444444444444499999999999999999131313131416|
D|---------------------------------------------------------------------------|
A|---------------------------------------------------------------------------|
E|---------------------------------------------------------------------------|
 
     Am~~~~~~~~Em~~~~~~~
e|----0---------0-----------------------------|
B|----1---------0-----------------------------|
G|----2---------0---------0-2~~5-4-2-4--------|
D|----2---------2-----------------------5-2~~-|
A|----0---------2-----------------------------|
E|--------------0-----------------------------|  x2

e|---------------------------------------------------------------------------|
B|---------------------------------------------------------------------------|
G|5555555555555555555555544444444444444444444444-2-0~~~~~0--0--0~~~~~~~------|
D|---------------------------------------------------------------------------|
A|---------------------------------------------------------------------------|
E|---------------------------------------------------------------------------|

e|-----------------------------------------------------------------------------|
B|-----------------------------------------------------------------------------|
G|55555555555555555555555444444444444444444444449999999999999999913131313-14-16|
D|-----------------------------------------------------------------------------|
A|-----------------------------------------------------------------------------|
E|-----------------------------------------------------------------------------|

e|----12-------12----12-13-12----------12------12|
B|-------13-------13----------12----12-----15----|
G|-14-------14-------------------12--------------|
D|-----------------------------------------------|
A|-----------------------------------------------|
E|-----------------------------------------------|

e|----------12----12-13-12----------12---15-12|
B|-13----13----13----------12----12-----------|
G|----14----------------------12--------------|
D|--------------------------------------------|
A|--------------------------------------------|
E|--------------------------------------------|

e|----------12----12-13-12----------12------12|
B|-13----13----13----------12----12-----15----|
G|----14----------------------12--------------|
D|--------------------------------------------|
A|--------------------------------------------|
E|--------------------------------------------|

e|----------12----12-13-12----------12-|
B|-13----13----13----------12----12----|
G|----14----------------------12-------|
D|-------------------------------------|
A|-------------------------------------|
E|-------------------------------------|


e|---------------------------------------------------------------------------|
B|---------------------------------------------------------------------------|
G|555555555555555555555554444444444444444444444422200000444777777777777777777|
D|---------------------------------------------------------------------------|
A|---------------------------------------------------------------------------|
E|---------------------------------------------------------------------------|

e|---------------------------------------------------------------------------|
B|---------------------------------------------------------------------------|
G|999999995555555552222444444444444444444999999999999999999913131313-14-16---|
D|---------------------------------------------------------------------------|
A|---------------------------------------------------------------------------|
E|---------------------------------------------------------------------------|

e|----12-------12----12-13-12----------12------12|
B|-------13-------13----------12----12-----15----|
G|-14-------14-------------------12--------------|
D|-----------------------------------------------|
A|-----------------------------------------------|
E|-----------------------------------------------|

e|----------12----12-13-12----------12---15-12|
B|-13----13----13----------12----12-----------|
G|----14----------------------12--------------|
D|--------------------------------------------|
A|--------------------------------------------|
E|--------------------------------------------|

e|----------12----12-13-12----------12------12|
B|-13----13----13----------12----12-----15----|
G|----14----------------------12--------------|
D|--------------------------------------------|
A|--------------------------------------------|
E|--------------------------------------------|

e|----------12----12-13-12----------12-|
B|-13----13----13----------12----12----|
G|----14----------------------12-------|
D|-------------------------------------|
A|-------------------------------------|
E|-------------------------------------|

e|17171717171717171717171717171717171717171717171717171717----|
B|------------------------------------------------------------|
G|------------------------------------------------------------|
D|------------------------------------------------------------|
A|------------------------------------------------------------|
E|------------------------------------------------------------|

  Am~~~~~~~~~~~~~~~~~~~~~~~~~~~~~~~~~~~~~~
e|0-------------------------------------------------------------|
B|1---------------------------------------/---------------------|
G|2---------------------------------------/---------------------|
D|2---------------------------------------/---------------------|
A|0-------------------------------------------------------------|
E|--------------------------------------------------------------|
************************************

| /   slide up
| \   slide down
| h   hammer-on
| p   pull-off
| ~   vibrato
| +   harmonic
| x   Mute note
| b   Bend
| pb  Pre-bend
| br  Bend release
| pbr Pre-bend release
| brb Bend release bend

************************************
Добавлено: 22.08.2014
Другие материалы по этой песне:
  • Аккорды и текст

Страница создана 22.08.2014
http://primanota.ru/treble-spankers/das-model-chords.htm
Привет, Гость.
Предлагаем пройти революционный курс по гитаре.
Подарок от PrimaNota.Ru, забирай!