PrimaNota.ru - самый крупный в мире бесплатный архив песенных текстов, аккордов, табулатур и нот


Treble Charger - The First Time - аккорды и текст, драм-таба, видео

Регистрация Запомнить меня
Войти через:  Facebook Google Twitter Vk Yandex Mail.ru

Treble Charger - The First Time - аккорды и текст, драм-таба, видео

Печатать
Просмотров: 108
The First Time
Treble Charger
Treble Charger
The First Time
Detox
2002
Submitted by: paramore_fans@yahoo.com

Key: A

Tuning: Standard EADGBe

Chords used:
A -   x02220
F#m - 244222
F -   133211
Bm -  x24432
D -   xx0232
E -   022100
C#m - x46654
C# -  x46664
C -   x32010
Dm -  xx0231
G -   320033
B -   x24442


Verse 1:
A                     F#m
  No matter how you explain it
   F
It doesn't look good
     C#m
From where i'm standing
A                     F#m
  You can shuffle the blame
      F
up We know it could
     C#m
Be a bumpy landing


Refrain 1:
D
I don't know guess
    A        E
you wanna go out
    D
And be with People
           F#m       E
While you scream and shout
D  E               D    Dm
Oh why did i never doubt


Chorus:
   A          C#m
If you only believed all
    D
the lies that you told me
  Bm
I wouldn't even mind
     A            C#m
It's true all u believe
                 D   D-C#m-C
if you lie to me only
  Bm
I couldn't be so blind
  A              C#
I knew that to decieve
                    D
You would try to control me
   Dm
It wouldn't be the first time


Mini Solo:

Bill: A--F#m--F--

Greig:
           A                   F#m             F
e|-------------------|-------------------|------------|
B|-------------------|-------------------|------------|
G|-4-6-4-2-4-6-5p4p2-|-4-6-4-2-4-6-5p4p2-|-5--5--4--2-|
D|-------------------|-------------------|------------|
A|-------------------|-------------------|------------|
E|-------------------|-------------------|------------|


Verse 2:
A
  Don't even think
         F#m
that you mean it
    F
You try to
tell the truth
    C#m
but that'd be boring
A
  A better version
       F#m
you've seen it
    F
Who better than you
   C#m
to sell the story


Refrain 2:
D
Don't tell me about
    A          E
the places you go
    D
And be with people that
     F#m    E
i've seen before
D  E               D   Dm
Oh why did i wanna know


(Repeat Chorus)


Breakdown:

Greig:
e|--------------|
B|--------------|
G|--------------|
D|-----0-2-0--3-|
A|-0-3----------|
E|--------------|


Bridge:
F                E
  I remember the days exactly
G             A
  Memory is a haze just ask me
F                E
  Wonders never amaze me
          Dm         F
They just get me down


Guitar Solo:

Bill: A-C#-D-B- x2, A-C#-D-F---

Greig:
       A              C#               D            B
e|-----------|-------------------|------------|------------------|
B|-----------|-------------------|------------|------------------|
G|-9---------|-10----------------|-11---------|-9-8--------------|
D|---11-9-11-|-----11-9-7-9h11p7-|----11-9----|-----9-7h9p7------|
A|-----------|-------------------|---------12-|-------------5--7-|
E|-----------|-------------------|------------|------------------|

       A              C#              D        C#   B
e|-----------|-----------------|-------------|----|----|-----------------------|
B|-----------|-------9-10-12-9-|----10----10-|-12-|-13-|-14--------------------|
G|-9---------|-10--------------|-11----11----|----|----|-----------------------|
D|---11-9-11-|-----11----------|-------------|----|----|--------------11-------|
A|-----------|-----------------|-------------|----|----|--------12-14----14-12-|
E|-----------|-----------------|-------------|----|----|-----12----------------|

         A               C#             D          F
e|----------------|--------------|-------------|------|
B|-----12p10---10-|-9h10p9-------|-------------|------|
G|-9-9-------9----|--------10----|--------9----|-9/10-|
D|----------------|-----------11-|-----11---12-|------|
A|----------------|--------------|-12----------|------|
E|----------------|--------------|-------------|------|


Bill: Before Chorus
   F    G    A    B    C    C#
e|----|----|----|----|----|----|
B|----|----|----|----|----|----|
G|-10-|-12-|-14-|-16-|-17-|-18-|
D|--x-|--x-|--x-|--x-|--x-|--x-|
A|--8-|-10-|-12-|-14-|-15-|-16-|
E|----|----|----|----|----|----|


(Repeat Chorus)
Добавлено: 12.03.2012
Другие материалы по этой песне:
  • Аккорды и текст

Страница создана 12.03.2012
http://primanota.ru/treble-charger/the-first-time-chords.htm
Привет, Гость.
Предлагаем пройти революционный курс по гитаре.
Подарок от PrimaNota.Ru, забирай!