PrimaNota.ru - самый крупный в мире бесплатный архив песенных текстов, аккордов, табулатур и нот


Treble Charger - Mores The Pity - аккорды и текст, видео

Регистрация Запомнить меня
Войти через:  Facebook Google Twitter Vk Yandex Mail.ru

Treble Charger - Mores The Pity - аккорды и текст, видео

Печатать
Просмотров: 79
Mores The Pity
Treble Charger
Treble Charger
Mores The Pity
Wide Awake Bored
2000
Submitted by: paramore_fans@yahoo.com

Key: D

Tuning: Drop D

Chords used: Drop D only
D -    000xxx
A -    777xxx
Bm  -  999xxx
G -    555xxx
Em -   222xxx
F#m -  444xxx
D/F# - 454xxx

Chords used: for standard EADGBe
D -    xx0232
A -    x02220
Bm  -  x24432
G -    320033
Em -   022000
F#m -  244222
D/F# - 2x023xx


Intro: D


Verse 1:
D(all the way)
  I am everything
I am on the brink of still
It's not all it's true
Sitting on a sprinkler
Take my call and see
The receiver to your ear
When you bridge the leap
It will all become so clear


Chorus 1:
Em                 G           D
  That there's not only one of me
          A
Just look closely now
Em           G                  D
  Count them all and you'll get three
           A                  F#m
That one's clever, this one's free
              G
But it's your favourite
       Em
I hate more's the pity


Interlude: D--,G-F#m-Em-D-


Verse 2:
D(all the way)
  I've seen everything
I can only think is true
Check my windowpane
If you can't enjoy the view
I could fall for less
I believe a thing you say
Write it down for me
And it will all come into play


(Repeat Chorus 1)


Interlude: D--


Bridge:
G             D/F#
Lined up in a row
     Em
Like little dolls
     A
like bungalows
    G                D/F#
The reasons look the same
  Em            A
A newer version same old game


Bill: D--G--D--D/F#-G-Em-

Greig: Solo
            D                            G
e|-----------------------|-9--10--------12--14--------------|
B|-7--7-8-10-12--10-8--7-|-------10--7---------15-----------|
G|-----------------------|-------------------------11h12p11-|
D|-----------------------|----------------------------------|
A|-----------------------|----------------------------------|
D|-----------------------|----------------------------------|

            D                  F#m             G
e|-----------------------|-9--10-------|-9--10---------|
B|-7--7-8-10-12--10-8--7-|-------10--7-|-------10--7-8-|
G|-----------------------|-------------|---------------|
D|-----------------------|-------------|---------------|
A|-----------------------|-------------|---------------|
D|-----------------------|-------------|---------------|

       Em
e|---------------|
B|-10--8-7-8-7---|
G|-------------7-|
D|---------------|
A|---------------|
D|---------------|


Verse 3:
D(hold)
  I am everything
I am on the brink
I'm not anything
I could use a drink


Chorus 2:
Em        G
  Tell me what you see
D                             Em
  You look close but it's not me
        G
I'm not what you need
D
  And I'll never ever be
(Repeat)


Outro:

Guitar Solo: Em-G-D-- x3, Em-G---G(Hold), D(hold)

Greig: Solo
e|-----10------10-----|
B|-7-8----7-8-----8-7-|
G|--------------------|
D|--------------------| x20
A|--------------------|
E|--------------------|
Добавлено: 10.03.2012
Другие материалы по этой песне:
  • Аккорды и текст

Страница создана 10.03.2012
http://primanota.ru/treble-charger/mores-the-pity-chords.htm
Привет, Гость.
Предлагаем пройти революционный курс по гитаре.
Подарок от PrimaNota.Ru, забирай!