PrimaNota.ru - самый крупный в мире бесплатный архив песенных текстов, аккордов, табулатур и нот


Treble Charger - Favorite Worst Enemy - аккорды и текст, таба, бас-таба, драм-таба, видео

Регистрация Запомнить меня
Войти через:  Facebook Google Twitter Vk Yandex Mail.ru

Treble Charger - Favorite Worst Enemy - аккорды и текст, таба, бас-таба, драм-таба, видео

Печатать
Просмотров: 119
Favorite Worst Enemy
Treble Charger
Treble Charger
Favorite Worst Enemy
Wide Awake Bored
2000
Submitted by: paramore_fans@yahoo.com

Key: A

Tuning: Standard EADGBe

Chords used:
E -    022100
F#m -  244222
D -    xx0232
A -    x02220
F -    133211
Bm -   x24432
E/G# - 476xxx
D/F# - 2x023x


Intro:

Greig: E-D-F#m-E-D-A- x2

Bill:
e|---------------------------------|
B|-9-10-9--------------------------|
G|--------11--9--11----11----11----|
D|-------------------9-----9-----9-|
A|---------------------------------|
E|---------------------------------|

e|---------------------------------|
B|-9-10-9--------12----12----12----|
G|--------11--9------9-----9-----9-|
D|---------------------------------|
A|---------------------------------|
E|---------------------------------|

e|---------------------------------|
B|-9-10-9--------------------------|
G|--------11--9--11----11----11----|
D|-------------------9-----9-----9-|
A|---------------------------------|
E|---------------------------------|

e|---------------------------12----|
B|-9-10-9--------12----12-------12-|
G|--------11--9------9-----9-------|
D|---------------------------------|
A|---------------------------------|
E|---------------------------------|


Verse 1:
   E                 F#m
If you could read my mind
       D
Than I know you'd find
A              E        F#m D A
everything you never say
    E               F#m
You said you needed time
     D                  A
So I asked if you would mind
           E          F#m D A
If I could do the same


Bill: "never say" and "do the same"
e|-4-4-4-4-5-5-5-5-5-5-5-5-5-5-5-5-----------|
B|-------------------------------------------|
G|-------------------------------------------|
D|-------------------------------------------|
A|-------------------------------------------|
E|-------------------------------------------|


Refrain:
E             F#m  D      A
  with Senses over blowing
E
  You're never
F#m           D    F
coming you're going


Chorus 1:
And it's driving me
E    F#m
crazy   Knowing what's
D           A
good for you And I'm
                E    F#m
longing for the lazy days
                     D          A
But those were never good enough


Verse 2:
  E                   F#m
I guess that you were right
         D
When you said I might
A          E             F#m D A
Really get bored with you
  E                F#m
I never would have guessed
          D             A
That it'd end in such a mess
             E           F#m D A
Or that it'd be this soon


(Repeat Refrain)


Chorus 2:
And it's driving me
E    F#m
crazy   Knowing what's
D           A
good for you And I'm
                E    F#m
longing for the lazy days
But those were
      Bm
never good enough
      E
never good enough


Chorus 3:

Cause there's
           A       E/G#
something about you
But I can't put
   D           F
my finger on it
              A      F#m
So hard to forget you
You're my favorite
      Bm   D
worst enemy
(Repeat)


Bridge:
F#m
   When you sat there
laughing all about it
D
  Did it make you feel
any better about it
Bm
  Can you try to
hide it weel enough
   D
To fake it just
    Bm (pick slide down)
for me I doubt it


Guitar Solo: E-F#m-D-A- x4

Bill:
     E      F#m     D     A
e|-------|------|------|------|
B|-------|------|------|------|
G|-1h2p1-|------|------|------|
D|-------|-4--2-|-0----|------|
A|-------|------|----4-|-2--0-|
E|-------|------|------|------|

     E      F#m    D     A
e|-------|-----|------|------|
B|-------|-----|-2--2-|---2--|
G|-----1-|-2-4-|------|-2----|
D|-------|-----|------|------|
A|-2-----|-----|------|------|
E|-------|-----|------|------|

   E
e|---
B|-0-
G|---
D|---
A|---
E|---


Greig:
     E         F#m         D       A
e|---4-4-|-5-5-4-4-7-7-|-9--9-|-7-5-4-4-|
B|-------|-------------|------|---------|
G|-------|-------------|------|---------|
D|-------|-------------|------|---------|
A|-------|-------------|------|---------|
E|-------|-------------|------|---------|

    E       F#m       D         F
e|-7--|----------|----5----|----5----|
B|----|-10-9-7---|---------|---------|
G|----|--------9-|-7-----7-|-5-----5-|
D|----|----------|---------|---------|
A|----|----------|---------|---------|
E|----|----------|---------|---------|


Chorus 4:
And it's driving me
E    F#m
crazy   Knowing what's
D           A
good for you And I'm
                E    F#m
longing for the lazy days
But those were
      Bm
never good enough
      E
never good enough
never good enough


(Repeat Chorus 3)


Interlude: A-E/G#-D/F#-F- x2


Outro:
A    E/G#
Enemy
you're my
         D/F# F
favorite enemy
(Repeat)


Guitar Solo: A-E/G#-D/F#-F- until fade

Bill:
     A       E/G#    D/F#           F
e|--------|-------|--------|-----------------|
B|-10--12-|-9-----|-----10-|-----------------|
G|--------|----9--|-11-----|-10--9h10p9h10p9-|
D|--------|-------|--------|-----------------| x2
A|--------|-------|--------|-----------------|
E|--------|-------|--------|-----------------|

Greig:
       A          E/G#          D/F#                F
e|-----12-----|----12----|----------------|----------------------|
B|-10------10-|-9------9-|----------10-12-|-13--12-10h12p10------|
G|------------|----------|-11--9h11-------|-----------------11-9-|
D|------------|----------|----------------|----------------------|
A|------------|----------|----------------|----------------------|
E|------------|----------|----------------|----------------------|

       A          E/G#          D/F#                F
e|-----12-----|----12----|----------------|----------------------|
B|---------10-|-9------9-|----------10-12-|-13--12-10h12p10------|
G|--9---------|----------|-11--9h11-------|-----------------11-9-|
D|------------|----------|----------------|----------------------|
A|------------|----------|----------------|----------------------|
E|------------|----------|----------------|----------------------|

       A          E/G#       D/F#             F
e|-----12-----|----12----|-----10-----|-----------------|
B|---------10-|-9------9-|------------|-----------------|
G|--9---------|----------|-11------11-|-10--9h10p9h10p9-|
D|------------|----------|------------|-----------------|
A|------------|----------|------------|-----------------|
E|------------|----------|------------|-----------------|

       A             E/G#                D/F#          F
e|------------|-----------------|--------------------|----|
B|------------|---------------9-|-10--10p9h10--10p12-|-13-|
G|--9-------9-|-9--11-9-9--11---|--------------------|----|
D|-----9-11---|-----------------|--------------------|----|
A|------------|-----------------|--------------------|----|
E|------------|-----------------|--------------------|----|
Добавлено: 27.02.2012
Другие материалы по этой песне:
  • Аккорды и текст

Страница создана 27.02.2012
http://primanota.ru/treble-charger/favorite-worst-enemy-chords.htm
Привет, Гость.
Предлагаем пройти революционный курс по гитаре.
Подарок от PrimaNota.Ru, забирай!