PrimaNota.ru - самый крупный в мире бесплатный архив песенных текстов, аккордов, табулатур и нот


Treble Charger - Cant Wake Up - аккорды и текст, таба, бас-таба, драм-таба, видео

Регистрация Запомнить меня
Войти через:  Facebook Google Twitter Vk Yandex Mail.ru

Treble Charger - Cant Wake Up - аккорды и текст, таба, бас-таба, драм-таба, видео

Печатать
Просмотров: 239
Уроки эстрадного вокала в Санкт-Петербурге
Cant Wake Up
Treble Charger
Treble Charger
Can't Wake Up
Detox
2002
Submitted by: paramore_fans@yahoo.com

Key: D, F

Tuning: Standard EADGBe

Chords used:
D -  xx0232
A -  x02220
Bm - x24432
G -  320033
Em - 022000
F -  133211
C -  x32010
C# - x46664
Bb - x13331


Intro: Bass Solo until verses
      D         A         Bm        G
G|---------|---------|---------|---------|
D|-----7---|-7-7-7-4-|-----4---|-5-5-5-4-|
A|-5-5---5-|---------|-2-2---2-|---------|
E|---------|---------|---------|---------|


Verse 1:
D         A             Bm
What's so wrong with me now
     G             D
am i different somehow
      A
don't feel like i'm
Bm        G
quite the same
  D      A         Bm
I got to thinking again
      G            D
and i know i can't win
     A          Bm        G
so i won't even play that game


Verse 2:
D       A           Bm
Throw a drink in my face
       G        D
if you have any taste
         A         Bm      G
throw me down and erase my mind
D       A            Bm
kick me now that i'm down
       G         D
try to knock me around
         A        Bm          G
drive me into the ground this time


Refrain 1:
Em              G
  now that i've lost my place
Em               G
  i could really use more space


Guitar 2: Refrain, * means harmonics
e|-------|
B|----5*-|
G|-5*----|
D|-------|
A|-------|
E|-------|


Chorus:
D           F
I live in a daze
    C
and i can't change
    G
and i can't wake up
D                  F
don't know what to say
     C
it's something strange
     G
that i can't make up


Interlude: D-C#-D-C#-Em-G-A- x2, Bm--A-G-


Verse 3:
D          A         Bm
Somethings missing today
          G      D
it's been taken away
          A         Bm      G
won't let anything stay the same
D         A           Bm
all those nights in a row
         G             D
can't be high when i'm low
         A
i've got only
  Bm      G
myself to blame


Refrain 2:
Em
  I'm kind of feeling
G
bruised and worn
Em              G
  Can't weather out
this storm


(Repeat Chorus)


Guitar Solo: D--F--Bb--A-G- x2

Guitar 2: x2
e|-5-----5-------------5-------|
B|----7----8-6-8-6---6---8-6-8-|
G|-----------------7-----------|
D|-----------------------------|
A|-----------------------------|
E|-----------------------------|

e|-5-----5-------------5---5---|
B|----7----8-6-8-6---6---8---8-|
G|-----------------7-----------|
D|-----------------------------|
A|-----------------------------|
E|-----------------------------|


Bridge:
D       F
I'm not trying to
        Bb
make a statement
    A      G       D
i'm trying to hang on
F            Bb
nothing to depend on
   A       G
in moments i'll be go-ne


Guitar Solo:
D--F--Bb--A-G- x2

Guitar 2: Very fast shredding!!!
e|----------------------10--12-13-12-10---------------------------------------|
B|-8/10\8/10\8/10\8/10------------------13-11-10------------------------------|
G|-----------------------------------------------12-10-9----------------------|
D|-------------------------------------------------------12-10----------------|
A|-------------------------------------------------------------13-12----------|
E|-------------------------------------------------------------------15-14-13-|

e|----------------------------------------------------------------------|
B|----------------------------------------------------------------13h15-|
G|----------------7-9-10----------------------12-10-9-------------------|
D|-----------8-10--------10-9-8-----------------------12-10-------------|
A|------8-10--------------------10-9-8----------------------13-12-------|
E|-8-10--------------------------------10-9-8---------------------------|

(Repeat Chorus twice)


Outro: D-C#-D-C#-Em-G-A- x3, Bm--A-G--D(hold)
Добавлено: 11.03.2012
Другие материалы по этой песне:
  • Аккорды и текст

Страница создана 11.03.2012
http://primanota.ru/treble-charger/cant-wake-up-chords.htm
Привет, Гость.
Предлагаем пройти революционный курс по гитаре.
Подарок от PrimaNota.Ru, забирай!