PrimaNota.ru - самый крупный в мире бесплатный архив песенных текстов, аккордов, табулатур и нот


Treble Charger - Brand New Low - аккорды и текст, таба, бас-таба, драм-таба, видео

Регистрация Запомнить меня
Войти через:  Facebook Google Twitter Vk Yandex Mail.ru

Treble Charger - Brand New Low - аккорды и текст, таба, бас-таба, драм-таба, видео

Печатать
Просмотров: 239
Brand New Low
Treble Charger
Treble Charger
Brand New Low
Wide Awake Bored
2000
Submitted by: paramore_fans@yahoo.com

Key: B then A

Tuning: Standard EADGBe

Chords used:
E -    022100
B -    x24442
F# -   244322
F#m -  244222
D -    xx0232
A -    x02220
Bm -   x24432
C#m -  x46654
E/G# - 476xxx


Intro:

Guitar 1:
     E        B           F#
e|-------|---------|--------------|
B|-------|---------|--------------|
G|-----1-|---------|---------1----|
D|---2---|---1-4---|----4-------4-| x2
A|-2-----|-2-------|----4---------|
E|-------|-------0-|-2-----2------|

Guitar 2:
E|-7p6-
B|-----
G|-----
D|-----
A|-----
E|-----


Verse 1:
E
Over and over I
     B         F#
keep wondering why
            E
Then I give up and see
     B            F#
that look in your eyes
                    E
Cause if I trip and fall
B          F#
I'll be to blame
                 E
And if I hit the wall
      B           F#
I'll still be the same


Interlude:

Guitar 1:
     E        B           F#
e|-------|---------|--------------|
B|-------|---------|--------------|
G|-----1-|---------|---------1----|
D|---2---|---1-4---|----4-------4-| x2
A|-2-----|-2-------|----4---------|
E|-------|-------0-|-2-----2------|

Guitar 2:
     E       B            F#
e|-------|-------|-------------------|
B|-5-5-5-|-5-4-2-|-------------------|
G|-------|-------|-3-----------------|
D|-------|-------|----4----1-2--4--2-|
A|-------|-------|-------4-----------|
E|-------|-------|-------------------|

     E        B          F#
e|--------|-------|-------2-2---|
B|--------|-------|-------2-2---|
G|--------|-------|-4-3-4-------|
D|-1------|-2-1-2-|-------------|
A|----4p2-|-------|-------------|
E|--------|-------|-------------|


Verse 2:
             E
Wasting your time with
     B         F#
your so called friends
              E
The ones you adore and
    B           F#
the ones you pretend
                 E  B
And it's kind of sad
      F#
and deranged
                E
But it's not so bad
        B          F#
that it can't be explained


Refrain 1:
         A
Cause in my mind
     E/G#
It's all a waste of time
            B            F#
And there's no excuse at all
       A          E/G#
Then I realize surprise
                    B
You were right all along


Chorus 1:
      F#m
And I want to know
D        A        Bm
  Have I gone too far
       F#m
Have I sunk to a
A         D  E
brand new low
      F#m
And I want to know
D         A        Bm
  If I've gone too far
           F#m
Cause I've lost all
   A       D   E
my self control


Interlude:

Guitar 1:
e|-------|---------|--------------|
B|-------|---------|--------------|
G|-----1-|---------|---------1----|
D|---2---|---1-4---|----4-------4-| x2
A|-2-----|-2-------|----4---------|
E|-------|-------0-|-2-----2------|

Guitar 2:
     E       B            F#
e|-------|-------|------------0----------|
B|-5-5-5-|-5-4-2-|------2-0-2------------|
G|-------|-------|-3---------------------|
D|-------|-------|----4------------------|
A|-------|-------|-----------------------|
E|-------|-------|-----------------------|

    E        B      F#
e|-0-2-|---7--6h7-|-6-|
B|-----|-7--------|---|
G|-----|----------|---|
D|-----|----------|---|
A|-----|----------|---|
E|-----|----------|---|


Verse 3:
          E
Guilty as charged
             B
I've been convicted
    F#
and tried
                   E
Was it too much to ask
           B       F#
for you to take my side
Cause there's nothing
E    B         F#
here left to defend
                 E
When it's always me
         B            F#
That you blame in the end


Refrain 2:
         A
Cause in my mind it's
    E/G#
the perfect crime
            B
And there's no excuse
   F#         A
at all when I realize
   E/G#                      B
Surprise you were right all along


(Repeat Chorus 1)


Bridge:
Bm           D
  Nothing is what it seems
   Bm
To me you're sleeping
  D
without the dreams


Guitar 2: "nothing is what it seems"
       Bm             D
e|------------|----------------|
B|-------3----|-------3------2-|
G|-----4----4-|---2--------2---|
D|---4--------|-0---0----0-----| x2
A|-2----------|----------------|
E|------------|----------------|

        A   E         Bm
Without you nothing defines me
                   A
When I'm slipping away
          E            Bm
It's only you that can find me
                D
and I'm over my head again
                        E
I'm falling from end to end


Guitar solo: C#m--D-E- x2

Guitar 2: Solo
e|-0h5--0h5--0h5--0h5--5h9--5h9--5h9--5h9-|
B|----------------------------------------|
G|----------------------------------------|
D|----------------------------------------|
A|----------------------------------------|
E|----------------------------------------|


Chorus 2::
      F#m
And I want to know
D        A        Bm
  Have I gone too far
      F#m
And I want to know
A        D        E
  Have I gone too far
      F#m
And I want to know
D        A        Bm
  Have I gone too far
           F#m
Cause I've lost all
   A       D   E
my self control
           F#m
Cause I've lost all
   A       D   E
my self control
      F#m
Now I sunk to a
A         D  E
brand new low


Outro:
(Brand new low)
        F#m     D    Bm       E
There's nothing me without you
(Brand new low)
        F#m     D    Bm       E
There's nothing me without you
(Brand new low)
     F#m      D     Bm       E
I'm slipping away without you
      F#m
Have I sunk to a
A         D(hold)
brand new low
Добавлено: 06.03.2012
Другие материалы по этой песне:

Страница создана 06.03.2012
http://primanota.ru/treble-charger/brand-new-low-chords.htm
Привет, Гость.
Предлагаем пройти революционный курс по гитаре.
Подарок от PrimaNota.Ru, забирай!