PrimaNota.ru - самый крупный в мире бесплатный архив песенных текстов, аккордов, табулатур и нот


Treble Charger - American Psycho - аккорды и текст, таба, бас-таба, драм-таба, видео

Регистрация Запомнить меня
Войти через:  Facebook Google Twitter Vk Yandex Mail.ru

Treble Charger - American Psycho - аккорды и текст, таба, бас-таба, драм-таба, видео

Печатать
Просмотров: 203
American Psycho
Treble Charger
Treble Charger
American Psycho
Wide Awake Bored
2000
Submitted by: paramore_fans@yahoo.com

Key: A

Tuning: Standard EADGBe

Chords used:
A -    x02220
C#m -  x46654
E -    022100
F#m -  244222
D -    x02220
Bm -   x24432
G -    320033
A/C# - x476xx
Dm -   xx0231
F -    133211
Esus - 022200


Intro:

Silence: A--C#m-D-Bm--D-C#m- x2

Distortion: A--E--F#m--D--

Guitar 2: Distortion
        A             E             F#m              D
e|----------5--|-4--2--0----|-2-0-2-0-2-0-----|-----2--0----|
B|----0--2-----|----------2-|-------------2-0-|-----------2-|
G|-2-----------|------------|-----------------|-2-2---------|
D|-------------|------------|-----------------|-------------|
A|-------------|------------|-----------------|-------------|
E|-------------|------------|-----------------|-------------|


Verse 1:
A
  What's the problem
         D
with the human race
                   F#m
(With someone like you)
No matter where I turn I
G
can't escape your double face
A                             D
  Don't want to listen to the radio
(Cause they don't know)
F#m
   Or stick around just
   D
to hear I told you so


Refrain:
F#m G A
       How could we make
     A/C#     D
it without you
  A
I should have known
          F#m      G
better to doubt you
  A
I thought I'd heard
           A/C# D Esus4(hold)
the end of it


Guitar 2: Refrain
    F#m       G       A/C#     D    A
e|-2h3p2-|-0-------|-------|------|-0-|
B|-------|----3--2-|-2h3p2-|-0----|---|
G|-------|---------|-------|----2-|---|
D|-------|---------|-------|------|---|
A|-------|---------|-------|------|---|
E|-------|---------|-------|------|---|

    F#m       G      A/C#  D   Esus4
e|-2h3p2-|-0-------|-----|---|-----|
B|-------|----3--2-|-----|---|-----|
G|-------|---------|-6---|-7-|-2---|
D|-------|---------|-7---|-7-|-2---|
A|-------|---------|-4---|-5-|-2---|
E|-------|---------|-----|---|-0---|


Chorus:
    A              E
And now I know how far you'd go
   F#m
to be the next freak show
 D
American psycho
A
Cover of the magazines
E
Patron Saint to troubled teens
  F#m                     D
I Wish I never heard your name


Interlude: A--C#m-D-Bm--D-C#m- x2

Guitar 2:
    A    C#m   D   Bm    D  C#m
e|-----|-4---|-5-|-----|-5-|-4-|
B|-----|-----|---|-----|---|---|
G|-2-2-|-----|---|-4-4-|---|---|
D|-2-2-|-----|---|-4-4-|---|---| x2
A|-0-0-|-----|---|-2-2-|---|---|
E|-----|-----|---|-----|---|---|


Verse 2:
A
  Tomorrow could be
      D
just another day
                  F#m
(Means nothing to you)
A misdemeanor or A
G
felony that's ok
A
  Don't want to wait
      D
for a second chance
(So take a stance)
F#m
   It's your turn for the
 D
spotlight the big dance


(Repeat Refrain and Chorus)


Guitar solo:
A E                 F#m D
   They all want to know
A E               F#m D
   What I already know


Guitar 2: Solo
        A             E             F#m              D
e|----------5--|-4--2--0----|-2-0-2-0-2-0-----|-----2--0----|
B|----0--2-----|----------2-|-------------2-0-|-----------2-|
G|-2-----------|------------|-----------------|-2-2---------|
D|-------------|------------|-----------------|-------------|
A|-------------|------------|-----------------|-------------|
E|-------------|------------|-----------------|-------------|

        A             E             F#m           Dm(Breakdown)
e|-------0--9--|-7--5--4--0-|-5-4-5-4-5-4-2-0-|-2-0-2-0-5-2---0-|-1-|
B|----2--------|------------|-----------------|-------------3---|---|
G|-2-----------|------------|-----------------|-----------------|---|
D|-------------|------------|-----------------|-----------------|---|
A|-------------|------------|-----------------|-----------------|---|
E|-------------|------------|-----------------|-----------------|---|


Breakdown: Dm--A--

Guitar 3:
     Dm        A
e|-3-1---|-----------|
B|-----2-|-------2---|
G|-------|-----2---2-|
D|-------|---2-------|
A|-------|-0---------|
E|-------|-----------|

Guitar 2:
      A     Dm
e|---------|---|
B|-3-2-----|---|
G|-----2---|---|
D|-------2-|-3-|
A|---------|---|
E|---------|---|


Bridge:
Dm                      A
  What am I supposed to do
                            D
When you know that it's all true
          A             G
That you stole that you lied
         F#m F------
That you knew


Verse 3:
A
Primadonna self absorbed
E
Wide awake and never bored
F#m
Party binge and purge And see
  D
results of plastic surgery
 A
Spotted at the hottest shows
E
Interview on Charlie Rose
F#m                      D
They all want a piece of you


(Repeat Chorus)


Outro: Do Guitar Solo on Guitar 2
A E                 F#m
   They all want to know
D                    A E
  How far you had to go
              F#m D
and I already know
How far you had to go

A--C#m-D-Bm--D-C#m-|
A--C#m-D-Bm--F#m-F-|A(hold)


Guitar 2:
    A    C#m   D   Bm    D  C#m
e|-----|-4---|-5-|-----|-5-|-4-|
B|-----|-----|---|-----|---|---|
G|-2-2-|-----|---|-4-4-|---|---|
D|-2-2-|-----|---|-4-4-|---|---|
A|-0-0-|-----|---|-2-2-|---|---|
E|-----|-----|---|-----|---|---|

    A    C#m   D   Bm   F#m  F
e|-----|-4---|-5-|-----|-5-|-4-|
B|-----|-----|---|-----|---|---|
G|-2-2-|-----|---|-4-4-|---|---|
D|-2-2-|-----|---|-4-4-|---|---|
A|-0-0-|-----|---|-2-2-|---|---|
E|-----|-----|---|-----|---|---|
Добавлено: 14.06.2012
Другие материалы по этой песне:

Страница создана 13.03.2012
http://primanota.ru/treble-charger/american-psycho-chords.htm
Привет, Гость.
Предлагаем пройти революционный курс по гитаре.
Подарок от PrimaNota.Ru, забирай!