PrimaNota.ru - самый крупный в мире бесплатный архив песенных текстов, аккордов, табулатур и нот


Tre Allegri Ragazzi Morti - Stai Con Me - аккорды и текст, видео

Регистрация Запомнить меня
Войти через:  Facebook Google Twitter Vk Yandex Mail.ru

Tre Allegri Ragazzi Morti - Stai Con Me - аккорды и текст, видео

Печатать
Просмотров: 81
Уроки эстрадного вокала в Санкт-Петербурге
Stai Con Me
Tre Allegri Ragazzi Morti
		   --------
Titolo: Stai come me
Autore: Tre allgri ragazzi morti
Trascritta da: Nobody

e|--------------------------------|
B|--------------------------------|
G|--4----5----7----9---11----12---|  x4
D|--x----x----x----x----x-----x---|
A|--2----3----5----7----9----10---|
E|--------------------------------|


[G]
Fragili arroganti ed insolenti
invadentie stupidi
prepotenti e fragili
impauriti come mai
malinconici e sognanti
indolenti e insofferenti
dipendenti dai parenti e dagli amori che non hai

[G]stai [C]come [F]me      x3
[G]stai [C]come [G]me

[G]
vuoti insoddisfatti e sorridenti
soli e inconsolabili
instancabili ed assenti
prepotenti e fragili
impauriti come mai
indolenti e insofferenti
dipendenti dai parenti e dagli amori che non hai

[G]stai [C]come [F]me      x3
[G]stai [C]come [G]me

[G]
specchio specchio delle mie brame   |
dimmi dov'è il mio reame            |   x2
dimmi che sarà di me                |
dimmi che sarà di me                |

[G]  [C]  [F]      x3
[G]  [C]  [G]

[G]stai [C]come [F]me      x3
[G]stai [C]come [G]me

e|--------------------------------|
B|--------------------------------|
G|--4----5----7----9---11----12---|  x4
D|--x----x----x----x----x-----x---|
A|--2----3----5----7----9----10---|
E|--------------------------------|

[G]
specchio specchio delle mie brame   |
dimmi dov'è il mio reame            |  x2
dimmi che sarà di me                |
dimmi che sarà di me                |

Nobody
jstnobody@hotmail.com






     
Добавлено: 23.11.2013
Другие материалы по этой песне:
  • Аккорды и текст

Страница создана 23.11.2013
http://primanota.ru/tre-allegri-ragazzi-morti/stai-con-me-chords.htm
Привет, Гость.
Предлагаем пройти революционный курс по гитаре.
Подарок от PrimaNota.Ru, забирай!