PrimaNota.ru - самый крупный в мире бесплатный архив песенных текстов, аккордов, табулатур и нот


Tre Allegri Ragazzi Morti - Il Mondo Prima - таба, бас-таба, видео

Регистрация Запомнить меня
Войти через:  Facebook Google Twitter Vk Yandex Mail.ru

Tre Allegri Ragazzi Morti - Il Mondo Prima - таба, бас-таба, видео

Печатать
Просмотров: 89
     G  Cadd9  Em7   D    C
e|---3----3-----3----2---(3)----|
B|---3----3-----3----3----5-----|
G|---0----0-----0----2----5-----|
D|---0----2-----2----0----5-----|
A|---2----3-----2---------3-----|
E|---3--------------------------|


--------------------------------------------------------------------------

RIFF1:
e|-------------------------|
B|-------------------------|
G|-------------------------|
D|-------------------------|
A|---0--2--3--5--3--2------|
E|-------------------------|



INTRO:
e|---------------------------------|
B|---------------------------------|
G|---------------------------------|
D|---------------------------------|
A|-------2---3---5---2-------------|
E|---3-------------------3---5-----|



STROFA:

    G                   Cadd9         Em7                  D
Era bello vedere che il verde ritorna e che si svegliano i ghiri

    G                Cadd9             Em7                    D+RIFF1
era bello sapere che dopo l'inverno la voglia ritorna anche a te



STACCO:
e|--------------------------------|
B|-/8-8-8-------------------------|
G|---------9-9-9---/9-9-9--7-7-7--|
D|--------------------------------|
A|--------------------------------|
E|--------------------------------|
    Cadd9+C            [Cadd9+C]

e|------------------------------------|
B|-/8-8-8-----------------------------|
G|---------9-9-9---/9-9-9--7-7-7/12---|
D|------------------------------------|
A|------------------------------------|
E|------------------------------------|
    Cadd9+C            [Cadd9+C]
 


STROFA:

    G                Cadd9         Em7                  D
era bello sapere che solo d'estate come gli insetti sui fiori

    G                Cadd9          Em7          D+RIFF1
era bello vedere i capelli bruciare e cambiare colore

    G                Cadd9          Em7               D
era bello vederti nuotare andare in fondo per poi risalire

    G                    Cadd9 Em7                  D
era bello star svegli la notte e tutto il giorno dormire



RITORNELLO:
e|--7-7-7-------------------------------|
B|-----------10-10-10-------------------|
G|-----------------------9-9-9---7-7-7--|
D|--------------------------------------| x3
A|--------------------------------------|
E|--------------------------------------|
    Cadd9+C                  [Cadd9+C]
    il mondo prima che arrivassi te

e|--7-7-7----------------------------------|
B|-----------10-10-10----------------------|
G|-----------------------9-9-9---7-7-7/12--|
D|-----------------------------------------|
A|-----------------------------------------|
E|-----------------------------------------|
    Cadd9+C                  [Cadd9+C]
    il mondo prima che arrivassi te



STROFA/SOLO:
e|--------------------------------------------------------------|
B|--------------------------------------------------------------|
G|--------------------------------------------------------------|
D|--------------------------------------------------------------|
A|---------------2--------3-----5--------2----------------------|
E|-------3--------------------------------------3-------5-------|
     era bello cadere d'autunno sopra le foglie come le foglie


e|--------------------------------------------------------|
B|----------12---12---12---12---12---12---------8----10---|
G|-2/7----9----9----9----9----9----9-------9--------------|
D|--------------------------------------------------------|
A|--------------------------------------------------------|
E|--------------------------------------------------------|
          G              Cadd9             Em7       D

e|-----------------------------------------10---10-8-7----|
B|----------12---12---12---12---12---12----------------8--|
G|-2/7----9----9----9----9----9----9----------------------|
D|--------------------------------------------------------|
A|--------------------------------------------------------|
E|--------------------------------------------------------|
          G              Cadd9             Em7         D+RIFF1



STROFA:
e|-----------------------------------------------------------|
B|----8---8---8-------8----8------------8---8---8------8-----|
G|------------------------------------7---7---7--------------|
D|--9---9---9------10---10---10---------------------10---10--|
A|-----------------------------------------------------------|
E|-----------------------------------------------------------|
    G              Cadd9              Em7           D
era bello sentirti cantare giù per le scale

e|-----------------------------------------------|
B|----8---8---8-----8---8--------8---8---8-------|
G|-----------------------------7---7---7---------|
D|--9---9---9-----10--10-------------------10----|
A|-----------------------------------------------|
E|-----------------------------------------------|
    G             Cadd9        Em7         D
era bello vederti ballare, era bello,  era bello



RITORNELLO:
Ripetere il ritornello.



STROFA:
e|---3---3-3-3-3--------3-3-3-3--------3-3-3-3--------3-3-3-3---|
B|---3---3-3-3-3--------3-3-3-3--------3-3-3-3--------3-3-3-3---|
G|---0---0-0-0-0--------0-0-0-0--------0-0-0-0--------0-0-0-0---|
D|---0---0-0-0-0--------0-0-0-0--------0-0-0-0--------0-0-0-0---|
A|---2--------------2--------------3--------------0-------------|
E|---3----------------------------------------------------------|
    (G)
 era bello il       cielo      d'inverno          come i


e|-------3-3-3-3--------3-3-3-3-----------------3---------------|
B|-------3-3-3-3--------3-3-3-3-----------------3---------------|
G|-------0-0-0-0--------0-0-0-0-----------------0---------------|
D|-------0-0-0-0--------0-0-0-0----0--0-0-2p0---0---------------|
A|---2-----------------------------0----------2-----------------|
E|------------------3-------------------------------------------|
tuoi denti

e|-------3-3-3-3--------3-3-3-3--------3-3-3-3--------3-3-3-3---|
B|-------3-3-3-3--------3-3-3-3--------3-3-3-3--------3-3-3-3---|
G|-------0-0-0-0--------0-0-0-0--------0-0-0-0--------0-0-0-0---|
D|-------0-0-0-0--------0-0-0-0--------0-0-0-0--------0-0-0-0---|
A|------------------2--------------3--------------0-------------|
E|---3----------------------------------------------------------|
    (G)
 era bello       sentire le        tue mani       fredde

e|-------3-3-3-3--------3-3-3-3---------------------------------|
B|-------3-3-3-3--------3-3-3-3----------3----------------------|
G|-------0-0-0-0--------0-0-0-0----------0----------------------|
D|-------0-0-0-0--------0-0-0-0----0-----0----------------------|
A|---2-----------------------------0-2-3---3-2------------------|
E|------------------3-------------------------------------------|
  cercare       qualcosa        di me

e|--------------------------------------------------------------------|
B|----8---8---8-----------8----8-------------8----8----8--------8-----|
G|----------------------------------------7----7----7-----------------|
D|--9---9---9----------10---10-------------------------------10---10--|
A|--------------------------------------------------------------------|
E|--------------------------------------------------------------------|
    G                  Cadd9             Em7                 D
era bello i tuoi piedi sopra le cosce un po' come fossimo in moto

e|-----------------------------------------------------------|
B|-----8-----8-----8--------8---8------8----8----8-----------|
G|----------------------------------7----7----7--------------|
D|--9-----9-----9---------10--10------------------------10---|
A|-----------------------------------------------------------|
E|-----------------------------------------------------------|
    G                     Cadd9     Em7                 D
 ma distesi sul letto mio fresco    quasi come guidassi tu



RITORNELLO:
Ripetere il ritornello, finire con:
e|--------------------|
B|--------------------|
G|--7/12--------------|
D|--------------------|
A|--------------------|
E|--------------------|
      G
Добавлено: 05.07.2012
Другие материалы по этой песне:
  • Аккорды и текст

Страница создана 05.07.2012
http://primanota.ru/tre-allegri-ragazzi-morti/il-mondo-prima-chords.htm
Привет, Гость.
Предлагаем пройти революционный курс по гитаре.
Подарок от PrimaNota.Ru, забирай!