PrimaNota.ru - самый крупный в мире бесплатный архив песенных текстов, аккордов, табулатур и нот


The Travis Waltons - Land Of The Giants - таба, видео

Регистрация Запомнить меня
Войти через:  Facebook Google Twitter Vk Yandex Mail.ru

The Travis Waltons - Land Of The Giants - таба, видео

Печатать
Просмотров: 88
-------------------------------------------------------------------------------
                   LAND OF THE GIANTS - The Travis Waltons
-------------------------------------------------------------------------------

Tuning: Eb (Half-Step Down)

Intro.
eb|-----------------------------5---|---------------------------------|
Bb|-7-------7-------7-------5-------|---------------------------------|
Gb|---------------------------------|-6-------6-------7-------7-------|
Db|-----4-------4-------4-----------|-----0-------0-------0-------0---|  x2
Ab|---5---5---5---5---5---5---5---5-|---5---5---5---5---5---5---5---5-|
Eb|---------------------------------|---------------------------------|

Verse

Intro. - x2

|---------------------------------|---------------------------------|
|-7-------7-------7-------7-------|---------------------------------|
|---------------------------------|-6-------6-------7-------7-------|
|-----4-------4-------4-------4---|-----0-------0-------0-------0---|  x2
|---5---5---5---5---5---5---5---5-|---5---5---5---5---5---5---5---5-|
|---------------------------------|---------------------------------|

Bridge
|---------------------------------|---------------------------------|
|---------------------------------|---------------------------------|
|-4-------4-------6-------6-------|-7-------2-------3-------3-------|
|-----0-------0-------0-------0---|-----0-------0-------0-------0---|
|---5---5---5---5---5---5---5---5-|---5---5---5---5---5---5---5---5-|
|---------------------------------|---------------------------------|

Transition
|---------------------------------|
|---------------------------------|
|-4-------4-------6-------6-------|
|-----0-------0-------0-------0---|
|---5---5---5---5---5---5---5---5-|
|---------------------------------|

Intro. - x1 (No Lyrics)
Verse - x1
Bridge - x2
Transition - x1

Outro.
|---------------------------------|---------------------------------|    |-------|
|-7-------7-------7-------7-------|-7-------7-------7-------7-------|    |-7-----|
|---------------------------------|---------------------------------|    |-7-----|
|-----0-------0-------0-------0---|-----0-------0-------0-------0---| x3 |-0-----|
|---5---5---5---5---5---5---5---5-|---------------------------------|    |-5-----|
|---------------------------------|---3---3---3---3---3---3---3---3-|    |-------|

Who you are is not important tonight.
D'you ever feel like your opinions are pushed aside for me to shine?

Well, tonight, I am the brightest star in your entire sky.

And, try as I might, I just rot inside, all the time. 

Who you are is not important tonight.
Tonight I'd break apart my heart and pride, just to make you sigh. 

I never lied, until I looked into those big black eyes. 

And hope all you like, I feel dead inside. But tonight, you're mine. 

(Once through Outro. without lyrics)

Here we go, so pathetic and I know. 
But what's to write, with this massive thorn in my side?
Добавлено: 26.12.2015
Вам также может быть интересно:
Другие материалы по этой песне:

Страница создана 12.08.2014
http://primanota.ru/travis-waltons/land-of-giants-chords.htm
Привет, Гость.
Предлагаем пройти революционный курс по гитаре.
Подарок от PrimaNota.Ru, забирай!