PrimaNota.ru - самый крупный в мире бесплатный архив песенных текстов, аккордов, табулатур и нот


Travis Scott - Drugs You Should Try It - таба, видео

Регистрация Запомнить меня
Войти через:  Facebook Google Twitter Vk Yandex Mail.ru

Travis Scott - Drugs You Should Try It - таба, видео

Печатать
Просмотров: 110
-------------------------------------------------------------------------------
                 DRUGS YOU SHOULD TRY IT -- Travi$ Scott
-------------------------------------------------------------------------------
Tabbed by: turbo donohoe

Tuning: Standard

Capo on 9th fret

e|---------------------------------------------------------------------------|
B|-----------------0-----------0------------0--------------------------------|
G|-------------0--0-0---------0-0----------2-2-------------------------------|
D|--2(8x)---2--------2------2-----2-----1------------------------------------|
A|-----------------------3------------2--------------------------------------|
E|---------------------------------------------------------------------------|
Добавлено: 26.12.2015
Вам также может быть интересно:
Другие материалы по этой песне:
  • Аккорды и текст

Страница создана 26.12.2015
http://primanota.ru/travis-scott/drugs-you-should-try-it-chords.htm
Привет, Гость.
Предлагаем пройти революционный курс по гитаре.
Подарок от PrimaNota.Ru, забирай!