PrimaNota.ru - самый крупный в мире бесплатный архив песенных текстов, аккордов, табулатур и нот


Travi$ Scott - 90210 - таба, видео

Регистрация Запомнить меня
Войти через:  Facebook Google Twitter Vk Yandex Mail.ru

Travi$ Scott - 90210 - таба, видео

Печатать
Просмотров: 98
-------------------------------------------------------------------------------
                             90210 - Travis Scott
-------------------------------------------------------------------------------
Tabbed by: Slade532
E-mail: Tommyhdz532@Gmail.com

Tuning: Standard

Capo: 2

e|----------------3-----------------3------------------------------------------|
B|--5---5---5---5----3---3----3---3--------------------------------------------|
G|----5---5---5--------3---3----3----------------------------------------------|
D|-----------------------------------------------------------------------------|
A|-------------------1-----1---------------------------------------------------|
E|--5-----0-5-----------------3------------------------------------------------|

************************************

| /   slide up
| \   slide down
| h   hammer-on
| p   pull-off
| ~   vibrato
| +   harmonic
| x   Mute note
| b   Bend
| pb  Pre-bend
| br  Bend release
| pbr Pre-bend release
| brb Bend release bend

************************************
Добавлено: 20.05.2016
Вам также может быть интересно:
Другие материалы по этой песне:
  • Аккорды и текст

Страница создана 20.05.2016
http://primanota.ru/travi-scott/90210-chords.htm
Привет, Гость.
Предлагаем пройти революционный курс по гитаре.
Подарок от PrimaNota.Ru, забирай!