PrimaNota.ru - самый крупный в мире бесплатный архив песенных текстов, аккордов, табулатур и нот


Travellin Strawberries - The Blues - таба, видео

Регистрация Запомнить меня
Войти через:  Facebook Google Twitter Vk Yandex Mail.ru

Travellin Strawberries - The Blues - таба, видео

Печатать
Просмотров: 127
Уроки эстрадного вокала в Санкт-Петербурге
-------------------------------------------------------------------------------
                             The Blues - Travellin' Strawberries
-------------------------------------------------------------------------------

Tabbed by: simeneine

Tuning: standard


e|--------7-----6-----5---------3--------------------------------------------|
B|------6-----5-----4---------3----------------------------------------------|
G|----7-----6-----5------3-4-------------------------------------------------|
D|---------------------------------------------------------------------------|
A|---------------------------------3-4-5-------------------------------------|
E|---------------------------------------------------------------------------|


e|---------------------------------------------------------------------------|
B|---------------------------------------------------------------------------|
G|---------------------------------------------------------------------------|
D|----7-7-9-7-10-7-9-7----12-12-14-12-15-12-14-12----------------------------|
A|----5-5-5-5-5--5-5-5----10-10-10-10-10-10-10-10----------------------------|
E|---------------------------------------------------------------------------|

e|---------------------------------------------------------------------------|
B|---------------------------------------------------------------------------|
G|---------------------------------------------------------------------------|
D|----7-7-9-7-7-7-9-7-7-7-9-7-10-7-9-7---------------------------------------|
A|----5-5-5-5-5-5-5-5-5-5-5-5-5--5-5-5---------------------------------------|
E|---------------------------------------------------------------------------|

e|---------------------------------------------------------------------------|
B|---------------------------------------------------------------------------|
G|---------------------------------------------------------------------------|
D|----12-12-14-12-15-12-14-12-12-12-14-12-15-12-14-12------------------------|
A|----10-10-10-10-10-10-10-10-10-10-10-10-10-10-10-10------------------------|
E|---------------------------------------------------------------------------|

e|----4--5--5-5-5-5-4-3--3-3-3----------------7-----6-----5--------3---------|
B|----6--7--7-7-7-7-6-5--5-5-5--------------6-----5-----4--------3-----------|
G|----4--5--5-5-5-5-4-3--3-3-3------------7-----6-----5------3-4-------------|
D|----6--7--7-7-7-7-6-5--5-5-5-----------------------------------------------|
A|----4--5-5-5-5-5-5--3-3-3-----0-1-2-3-------------------------------3-4-5--|
E|---------------------------------------------------------------------------|

                                          2x       
e|----4-- --3--3-3---------3--3-3--------------------------------------------|
B|----6-- --5--5-5---------5--5-5--------------------------------------------|
G|----4-- --3--3-3---------3--3-3--------------------------------------------|
D|----6-- --5--5-5---------5--5-5---------7-7-9-7-10-7-9-7-7-7-9-7-10-7-9-7--|
A|----4-- --3-3-3-3--------3-3-3-3--------5-5-5-5-5--5-5-5-5-5-5-5-5--5-5-5--|
E|------- ----------0-1-3----------0-1-3-------------------------------------|

e|----5--5-5-5-4-3--3-3-3-3--------------------------------------------------|
B|----7--7-7-7-6-5--5-5-5-5---------------------------4--5-------------------|
G|----5--5-5-5-4-3--3-3-3-3---------------------------4--5-------------------|
D|----7--7-7-7-6-5--5-5-5-5-------7-7-9-7-10-7-9-7----3--4-------------------|
A|----5-5-5-5-5--3-3-3-3-3---3-4--5-5-5-5-5--5-5-5---------------------------|
E|---------------------------------------------------------------------------|

         repeat (although some variations, it's more or less the same)

Добавлено: 07.08.2015
Другие материалы по этой песне:
  • Аккорды и текст

Страница создана 07.08.2015
http://primanota.ru/travellin-strawberries/blues-chords.htm
Привет, Гость.
Предлагаем пройти революционный курс по гитаре.
Подарок от PrimaNota.Ru, забирай!