PrimaNota.ru - самый крупный в мире бесплатный архив песенных текстов, аккордов, табулатур и нот


Trash Talk - Awake - таба, видео

Регистрация Запомнить меня
Войти через:  Facebook Google Twitter Vk Yandex Mail.ru

Trash Talk - Awake - таба, видео

Печатать
Просмотров: 72
Trash Talk- Awake

No one else had a tab of this on here and it's a great hardcore tune song so I thought 
I'd put it on as my first tab.

Main Riff:

D#|-------------------------------------------|
G#|-------------------------------------------|
C#|-------------------------------------------|
F#|--5-4444444-5-7777777-3-4444444-3-2222222--|
A#|--5-4444444-5-7777777-3-4444444-3-2222222--|
D#|--3-2222222-3-5555555-5-2222222-5-0000000--|  Repeat X4

There is also another riff when after that while both vocalists are both screaming Awake 
repeatedly (if you don't know what I mean listen to the song). That part goes like this:

D#|-------------------------------------------|
G#|-------------------------------------------|
C#|-------------------------------------------|
F#|--5-4444444-5-2222222----------------------|
A#|--5-4444444-5-2222222----------------------|
D#|--3-2222222-3-0000000----------------------| Repeat X4

Bridge:

D#|---------------------------------------|
G#|---------------------------------------|
C#|--8-7-6-7-6-5-6-5-4-5-4-3--------------|
F#|--8-7-6-7-6-5-6-5-4-5-4-3-4------------|
A#|--6-5-4-5-4-3-4-3-2-3-2-1-4------------|
D#|--------------------------2------------|

Then straight back into main riff

Outro:

Sam as bridge but stop on the last power chord except don't play the main riff and stop 
it right after you strike it.

Lyrics:
In the land of nod, he who sleeps with both eyes open is god.
And makes a living off of killing the living one at a time.
I am your hammer and sickle I am your ball and chain
I am your brain on drugs
I seek the peak of bliss and ZZZ is all I wish
Reflected in conniption fits I'm jaundiced, gaunted, sick sick sick. Awake.
I sleep through day after day but I just want to stay awake
I know the path is steep but still I seek the king of sleep
Amassed in moss, this ivory face I see cannot be me
Tie me off, come on and string me out
Collapse the highways to my heart straight from the horses mouth
I am the hole in your pocket I am your ball and chain
I am your brain on drugs
I seek the peak of bliss and ZZZ is all I wish
Reflected in conniption fits I'm jaundiced gaunted sick sick sick awake.

Have Fun!
Добавлено: 23.11.2013
Другие материалы по этой песне:

Страница создана 20.11.2013
http://primanota.ru/trash-talk/awake-chords.htm
Привет, Гость.
Предлагаем пройти революционный курс по гитаре.
Подарок от PrimaNota.Ru, забирай!