PrimaNota.ru - самый крупный в мире бесплатный архив песенных текстов, аккордов, табулатур и нот


Trapt - Trapt - таба, видео

Регистрация Запомнить меня
Войти через:  Facebook Google Twitter Vk Yandex Mail.ru

Trapt - Trapt - таба, видео

Печатать
Просмотров: 107
TRAPT retabbed by Josh Holloway
Headstrong Tab by Trapt, www.Ultimate-Guitar.Com

Tabbed by: bizziron
i tried playing a drop c tuning of this song and i didnt like it so i tried to
put in drop d i hope its all right. i give all the credit to the dude that tabbed
this first (llhlegend) i just changed his numbers.
questions or comments email me at byron_casebier@hotmail.com	
thanx,
bizziron

Tuning:DADGBE 

Intro w/distortion 
e|--------3-3--------3-3------------1-1---------1-1-------------------------|
b|--------------------------------------------------------------------------|
g|------------------------------------------------------0-------------------|
d|---3-3--------3-3------------1-1--------1-1---------1-0-------------------|
a|---3-3--------3-3------------1-1--------1-1---------1-0-------------------|
d|---3-3--------3-3------------1-1--------1-1---------1---------------------|


Rhythm Fig. 1 x2
e|--------3-3--------3-3-----------3----------1-1--------1-1----------------|
b|--------------------------------------------------------------------------|
g|----------------------------------------------------------------0---------|
d|---3-3---------3-3---------3-3---------1-1--------1-1---------1-0---------|
a|---3-3---------3-3---------3-3---------1-1--------1-1---------1-0---------|
d|---3-3---------3-3---------3-3---------1-1--------1-1---------1-----------|



Rhythm Fig. 2 clean tone x6
e|-------------------------8-8----------------------------------------------|
b|--8-8-8-8---8h9—9p8--8-----------6-6-6-6---6-6----------------------------|
g|---------------------------------------------------8-8-8--5---------------|
d|--------------------------------------------------------------------------|
a|--------------------------------------------------------------------------|
d|--------------------------------------------------------------------------|



Pre-chorus						w/distortion
e|--------------------------------------------------------------------------|
b|------8-8--------8-8-----------6-6--------6-6-----------------------------|
g|----8----------8-------------5----------5-------------0-------------------|
d|----------------------------------------------------1-0-------------------|
a|----------------------------------------------------1-0-------------------|
d|----------------------------------------------------1---------------------|




Chorus 
e|--------3-3------------------------------------1-1------------6-6---------|
b|--------------------------------------------------------------------------|
g|-----------------------------------------------------------------------0--|
d|---3-3--------3-3-------------3-3---------1-1----------1-1-----------1-0--|
a|---3-3--------3-3-------3-3------1-1----------1-1-----------1-0--|
d|---3-3--------3-3-------------3-3---------1-1----------1-1-----------1----|




Rhythm Fig. 4 (play each part twice)
e|--------------------------------------------------------------------------|
b|--------------------------------------------------------------------------|
g|---14--14-14-14-14--12--10--13--13-13-8--8-8-8-5--------------------------|
d|--------------------------------------------------------------------------|
a|---12--12-12-12-12--10--8---11--11-11-6--6-6-6-3--------------------------|
d|--------------------------------------------------------------------------|


						  end of Rhythm Fig. 4
e|--------------------------------------------------------------------------|
b|--------------------------------------------------------------------------|
g|---14--14-14-14-14--15--/17---13-13-8--8-8-8-5----------------------------|
d|--------------------------------------------------------------------------|
a|---12--12-12-12-12--13--/15---11—11-6--6-6-6-3----------------------------|
d|--------------------------------------------------------------------------|

Rest of Song:
Play Rhythm Fig. 2 x6
Play Pre-chorus
Play Rhythm Fig. 1 x2
Play Rhythm Fig. 3 x2
Play Rhythm Fig. 4 


clean tone x3
e|--15-15-15-15-15h16—16p15—15p13-13-13---13-13-13-13-13h15—15p13--13-13-13-|
b|--------------------------------------------------------------------------|
g|--------------------------------------------------------------------------|
d|--------------------------------------------------------------------------|
a|--------------------------------------------------------------------------|
d|--------------------------------------------------------------------------|


Play Pre-chorus
Play Rhythm Fig. 1 x2
Play Rhythm Fig. 3 x2
Play Rhythm Fig. 4
Play Rhythm Fig. 1 x1

Outro

e|---------3-3-----------------------------------13-13---------13-13--------|
b|-----------------------------------------------13-13---------13-13--------|   
g|--------------------------------------------------------------------------|
d|---3-3---------3-3----------3-3----------3-3------------3-3-----------3-0-|
a|---3-3---------3-3----3-3-------3-3------------3-3-----------1-0-|
d|---3-3---------3-3----------3-3----------3-3------------3-3-----------1---|
Made Of Glass Tab by Trapt, www.Ultimate-Guitar.Com

Guitar Tuned E A D G B E

Into/Verse:
E:---------------------------------
B:---------------------------------
G:----9----------------------------
D:------10---10-9---10-9------12-10
A:--0------8------8------8/10------
E:---------------------------------

Chorus:
E:--------------------------------
B:--------------------------------
G:--------------------------------
D:--------------------------------
A:--7--7-7--3--3-3--8--8-8--5--5-5
E:--5--5-5--1--1-1--6--6-6--3--3-3

E:------------------           E:--------------------
B:------------------           B:--------------------
G:------------------  X3 Then  G:-----5^---7^--------
D:------------------           D:--------------------
A:-5-5--7-7--10-9--5           A:-5-5----7-7--10-9--5
E:-3-3--5-5--8--7--3           E:-3-3----5-5--8--7--3

Interlude:
E------12---0|-------------------------------|------------------------------
B------------|-------------------------------|------------------------------
G10-10----0--|-------------------------------|-----------------------------12
D------------|--10-9---------10/12--10-9-----|----10-9---------10/12--10-9--
A------------|8------10-10~~-------------10~~|--8------10-10~~--------------
E------------|-------------------------------|------------------------------

Trapt - Hollowman
Album: Trapt
Tuning (Low to High): A E A D Gb B
Time Signature: 8/8

Legend:

< > = harmonic
 /  = slide up
 \  = slide down
 h  = hammer-on
 p  = pull-off
 *  = Staccato
 

B |------------------------------||------------------------------|
Gb|------------------------------||------------------------------|
D |-------------------14---------||-------------------14---------|
A |-14-14-14-15-14-12-12---------||-14-14-14-15-14-12-12---------|
E |-12-12-12-12-12-12-12---------||-12-12-12-12-12-12-12---------|
A |-12-12-12-12-12-12-12---------||-12-12-12-12-12-12-12---------|

B |------------------------------||------------------------------|
Gb|------------------------------||------------------------------|
D |--------------------10--------||--------------------10--------|
A |--8--8--8--10-10-8--8---------||--8--8--8--10-10-8--8---------|
E |--8--8--8--8--8--8--8---------||--8--8--8--8--8--8--8---------|
A |--8--8--8--8--8--8--8---------||--8--8--8--8--8--8--8---------|

No Distortion
B |------------------------------||------------------------------|
Gb|------------------------------||------------------------------|
D |-------------------14---------||-------------------14---------|
A |-14-14-14-15-14-12-12---------||-14-14-14-15-14-12-12---------|
E |-12-12-12-12-12-12-12---------||-12-12-12-12-12-12-12---------|
A |-12-12-12-12-12-12-12---------||-12-12-12-12-12-12-12---------|
  "I --						   can't

Distortion
B |------------------------------||------------------------------|
Gb|------------------------------||------------------------------|
D |--------------------10--------||--------------------10--------|
A |--8--8--8--10-10-8--8---------||--8--8--8--10-10-8--8---------|
E |--8--8--8--8--8--8--8---------||--8--8--8--8--8--8--8---------|
A |--8--8--8--8--8--8--8---------||--8--8--8--8--8--8--8---------|
   remember..."   

B |------------------------------||------------------------------|
Gb|------------------------------||------------------------------|
D |-------------------14---------||-------------------14---------|
A |-14-14-14-15-14-12-12---------||-14-14-14-15-14-12-12---------|
E |-12-12-12-12-12-12-12---------||-12-12-12-12-12-12-12---------|
A |-12-12-12-12-12-12-12---------||-12-12-12-12-12-12-12---------|
	The last   time    you    cared    about anyone.

B |------------------------------||------------------------------|
Gb|------------------------------||------------------------------|
D |--------------------10--------||--------------------10--------|
A |--8--8--8--10-10-8--8---------||--8--8--8--10-10-8--8---------|
E |--8--8--8--8--8--8--8---------||--8--8--8--8--8--8--8---------|
A |--8--8--8--8--8--8--8---------||--8--8--8--8--8--8--8---------|
	The last   Time    you    allowed   yourself to be seen.

B |------------------------------||------------------------------|
Gb|------------------------------||------------------------------|
D |-------------------14---------||-------------------14---------|
A |-14-14-14-15-14-12-12---------||-14-14-14-15-14-12-12---------|
E |-12-12-12-12-12-12-12---------||-12-12-12-12-12-12-12---------|
A |-12-12-12-12-12-12-12---------||-12-12-12-12-12-12-12---------|
	So pretentious your lies	Unrelenting Disguise

B |------------------------------||------------------------------|
Gb|------------------------------||------------------------------|
D |--------------------10--------||--------------------10--------|
A |--8--8--8--10-10-8--8---------||--8--8--8--10-10-8--8---------|
E |--8--8--8--8--8--8--8---------||--8--8--8--8--8--8--8---------|
A |--8--8--8--8--8--8--8---------||--8--8--8--8--8--8--8---------|
	Creating tears in your eyes	Your mind whithers and dies

B |------------------------------||------------------------------|
Gb|------------------------------||------------------------------|
D |---------------------14-------||---------------------14-------|
A |-14--------h15p14p12-12-------||-14--------h15p14p12-12-------|
E |-12---------12-12-12-12-------||-12---------12-12-12-12-------|
A |-12---------12-12-12-12-------||-12---------12-12-12-12-------|
	Pretending to be   some- thing   you   are   not

B |------------------------------||------------------------------|
Gb|------------------------------||------------------------------|
D |--------------------10--------||------------------10----------|
A |--8--------10h10p8--8---------||--8------10h10p8--8-----------|
E |--8--------8--8--8--8---------||--8------8--8--8--8-----------|
A |--8--------8--8--8--8---------||--8------8--8--8--8-----------|
	Somwhere in the   mid- dle  you  are   now  caught

B |------------------------------||------------------------------|
Gb|------------------------------||------------------------------|
D |---------------------14-------||---------------------14-------|
A |-14--------h15p14p12-12-------||-14--------h15p14p12-12-------|
E |-12---------12-12-12-12-------||-12---------12-12-12-12-------|
A |-12---------12-12-12-12-------||-12---------12-12-12-12-------|
	You've nev- er  seen

B |------------------------------||------------------------------|
Gb|------------------------------||------------------------------|
D |------------------------------||------------------------------|
A |--8--8------8--8-10-----------||-10-10--8--------8--8---------|
E |--8--8------8--8-10-----------||-10-10--8--------8--8---------|
A |--8--8------8--8-10-----------||-10-10--8--------8--8---------|
	Who   you really are--

B |------------------------------||------------------------------||-----------5---------------|
Gb|-10---------------------------||---13---------6---------------||--------6---------6--------|
D |-11---------------------------||---14---------7---------------||-----7-----------------7---|
A |--0---------------------------||------------------------------||--8-----------------------8|
E |------------------------------||------------------------------||---------------------------|
A |------------------------------||------------------------------||---------------------------|
		No-	life	breathes	in	you--

B |------------------------------||------------------------------||--5--------5--------5------|
Gb|-10---------------------------||---13---------6---------------||-----6--------6--------6---|
D |-11---------------------------||---14---------7---------------||--------7--------7---------|
A |--0---------------------------||------------------------------||---------------------------|
E |------------------------------||------------------------------||---------------------------|
A |------------------------------||------------------------------||---------------------------|
		All the time you laugh you wait you 	cry--

B |------------------------------||------------------------------||-----------5---------------|
Gb|-10---------------------------||---13---------6---------------||--------6---------6--------|
D |-11---------------------------||---14---------7---------------||-----7-----------------7---|
A |--0---------------------------||------------------------------||--8-----------------------8|
E |------------------------------||------------------------------||---------------------------|
A |------------------------------||------------------------------||---------------------------|
		No  part	of your life	is 	true--

B |------------------------------||------------------------------||--5--------5--------5------|
Gb|-10---------------------------||---13---------6---------------||-----6--------6--------6---|
D |-11---------------------------||---14---------7---------------||--------7--------7---------|
A |--0---------------------------||------------------------------||---------------------------|
E |------------------------------||------------------------------||---------------------------|
A |------------------------------||------------------------------||---------------------------|
		All the time your life	passes you 	bye--

B |------------------------------||------------------------------|
Gb|------------------------------||------------------------------|
D |-------------------14---------||-------------------14---------|
A |-14-14-14-15-14-12-12---------||-14-14-14-15-14-12-12---------|
E |-12-12-12-12-12-12-12---------||-12-12-12-12-12-12-12---------|
A |-12-12-12-12-12-12-12---------||-12-12-12-12-12-12-12---------|
	The last   time    you    cared    about anyone.

B |------------------------------||------------------------------|
Gb|------------------------------||------------------------------|
D |--------------------10--------||--------------------10--------|
A |--8--8--8--10-10-8--8---------||--8--8--8--10-10-8--8---------|
E |--8--8--8--8--8--8--8---------||--8--8--8--8--8--8--8---------|
A |--8--8--8--8--8--8--8---------||--8--8--8--8--8--8--8---------|
	The last   Time    you    allowed   yourself to be seen.

B |------------------------------||------------------------------|
Gb|------------------------------||------------------------------|
D |-------------------14---------||-------------------14---------|
A |-14-14-14-15-14-12-12---------||-14-14-14-15-14-12-12---------|
E |-12-12-12-12-12-12-12---------||-12-12-12-12-12-12-12---------|
A |-12-12-12-12-12-12-12---------||-12-12-12-12-12-12-12---------|
	So pretentious your lies	Unrelenting Disguise

B |------------------------------||------------------------------|
Gb|------------------------------||------------------------------|
D |--------------------10--------||--------------------10--------|
A |--8--8--8--10-10-8--8---------||--8--8--8--10-10-8--8---------|
E |--8--8--8--8--8--8--8---------||--8--8--8--8--8--8--8---------|
A |--8--8--8--8--8--8--8---------||--8--8--8--8--8--8--8---------|
	Creating tears in your eyes	Your mind whithers and dies

B |------------------------------||------------------------------|
Gb|------------------------------||------------------------------|
D |---------------------14-------||---------------------14-------|
A |-14--------h15p14p12-12-------||-14--------h15p14p12-12-------|
E |-12---------12-12-12-12-------||-12---------12-12-12-12-------|
A |-12---------12-12-12-12-------||-12---------12-12-12-12-------|
	Pretending to be   some- thing   you   are   not

B |------------------------------||------------------------------|
Gb|------------------------------||------------------------------|
D |--------------------10--------||------------------10----------|
A |--8--------10h10p8--8---------||--8------10h10p8--8-----------|
E |--8--------8--8--8--8---------||--8------8--8--8--8-----------|
A |--8--------8--8--8--8---------||--8------8--8--8--8-----------|
	Somwhere in the   mid- dle  you  are   now  caught

B |------------------------------||------------------------------|
Gb|------------------------------||------------------------------|
D |---------------------14-------||---------------------14-------|
A |-14--------h15p14p12-12-------||-14--------h15p14p12-12-------|
E |-12---------12-12-12-12-------||-12---------12-12-12-12-------|
A |-12---------12-12-12-12-------||-12---------12-12-12-12-------|
	You've nev- er  seen

B |------------------------------||------------------------------|
Gb|------------------------------||------------------------------|
D |------------------------------||------------------------------|
A |--8--8------8--8-10-----------||-10-10--8--------8--8---------|
E |--8--8------8--8-10-----------||-10-10--8--------8--8---------|
A |--8--8------8--8-10-----------||-10-10--8--------8--8---------|
	Who   you really are--

B |------------------------------||------------------------------|
Gb|------------------------------||------------------------------|
D |------------------------------||------------------------------|
A |--0--0--0--0--0--0--0---------||--0--0--0--0--0--0--0---------|
E |--0--0--0--0--0--0--0---------||--0--0--0--0--0--0--0---------|
A |--0--0--0--0--0--0--0---------||--0--0--0--0--0--0--0---------|
     I don't ever wanna see	     I don't ever wanna be

B |------------------------------||------------------------------|
Gb|------------------------------||------------------------------|
D |------------------------------||------------------------------|
A |-10---------10-10-10----------||--1--1--1--1------2/----------|
E |--8----------8--8--8----------||--1--1--1--1------3/----------|
A |--8----------8--8--8----------||--1--1--1--1------------------|
     like	you--			   Hollowman.

B |------------------------------||------------------------------|
Gb|------------------------------||------------------------------|
D |------------------------------||------------------------------|
A |--0--0--0--0--0--0--0---------||--0--0--0--0--0--0--0---------|
E |--0--0--0--0--0--0--0---------||--0--0--0--0--0--0--0---------|
A |--0--0--0--0--0--0--0---------||--0--0--0--0--0--0--0---------|
     I don't care what you give	     Hollowman you can't live

B |------------------------------||------------------------------|
Gb|------------------------------||------------------------------|
D |------------------------------||------------------------------|
A |-10---------10-10-10----------||--1--1--1--1------2/----------|
E |--8----------8--8--8----------||--1--1--1--1------3/----------|
A |--8----------8--8--8----------||--1--1--1--1------------------|
     like	this--

B |--------------------20--------||-------------------20---------|
Gb|------------------------------||------------------------------|
D |------------------------------||------------------------------|
A |--0--0--0--0--0--0------------||--0--0--0--0--0--0------------|
E |--0--0--0--0--0--0------------||--0--0--0--0--0--0------------|
A |--0--0--0--0--0--0------------||--0--0--0--0--0--0------------|
     Palm Muting		     Palm Muting
     I don't ever wanna see	     I don't ever wanna be

B |------------------------------||------------------------------|
Gb|------------------------------||------------------------------|
D |------------------------------||------------------------------|
A |-10---------10-10-10----------||--1--1--1--1------2/----------|
E |--8----------8--8--8----------||--1--1--1--1------3/----------|
A |--8----------8--8--8----------||--1--1--1--1------------------|
     like	you--			   Hollowman.

B |--------------------20--------||-------------------20---------|
Gb|------------------------------||------------------------------|
D |------------------------------||------------------------------|
A |--0--0--0--0--0--0------------||--0--0--0--0--0--0------------|
E |--0--0--0--0--0--0------------||--0--0--0--0--0--0------------|
A |--0--0--0--0--0--0------------||--0--0--0--0--0--0------------|
     Palm Muting		     Palm Muting
     I don't care what you give     Hollowman you can't live

B |------------------------------||------------------------------|
Gb|------------------------------||------------------------------|
D |------------------------------||------------------------------|
A |-10---------10-10-10----------||--1--1--1--1------2/----------|
E |--8----------8--8--8----------||--1--1--1--1------3/----------|
A |--8----------8--8--8----------||--1--1--1--1------------------|
     like	this--

B |-----------------------------||---------------------------||-----------5---------------|
Gb|-10--------------------------||---13---------6------------||--------6---------6--------|
D |-11--------------------------||---14---------7------------||-----7-----------------7---|
A |--0--------------------------||---------------------------||--8-----------------------8|
E |-----------------------------||---------------------------||---------------------------|
A |-----------------------------||---------------------------||---------------------------|
		"Your voice is just a whis-	per--
B |-----------------------------||---------------------------||--5--------5--------5------|
Gb|-10--------------------------||---13---------6------------||-----6--------6--------6---|
D |-11--------------------------||---14---------7------------||--------7--------7---------|
A |--0--------------------------||---------------------------||---------------------------|
E |-----------------------------||---------------------------||---------------------------|
A |-----------------------------||---------------------------||---------------------------|
		 You call upon your blank thoughts as you try--

B |-----------------------------||---------------------------||-----------5---------------|
Gb|-10--------------------------||---13---------6------------||--------6---------6--------|
D |-11--------------------------||---14---------7------------||-----7-----------------7---|
A |--0--------------------------||---------------------------||--8-----------------------8|
E |-----------------------------||---------------------------||---------------------------|
A |-----------------------------||---------------------------||---------------------------|
		 To fit in where you missed her---

B |-----------------------------||---------------------------||--5--------5--------5------|
Gb|-10--------------------------||---13---------6------------||-----6--------6--------6---|
D |-11--------------------------||---14---------7------------||--------7--------7---------|
A |--0--------------------------||---------------------------||---------------------------|
E |-----------------------------||---------------------------||---------------------------|
A |-----------------------------||---------------------------||---------------------------|
		 You missed the chance to stop living the lie--

B |------------------------------||------------------------------|
Gb|------------------------------||------------------------------|
D |-------------------14---------||-------------------14---------|
A |-14-14-14-15-14-12-12---------||-14-14-14-15-14-12-12---------|
E |-12-12-12-12-12-12-12---------||-12-12-12-12-12-12-12---------|
A |-12-12-12-12-12-12-12---------||-12-12-12-12-12-12-12---------|
	The last   time    you    cared    about anyone.

B |------------------------------||------------------------------|
Gb|------------------------------||------------------------------|
D |--------------------10--------||--------------------10--------|
A |--8--8--8--10-10-8--8---------||--8--8--8--10-10-8--8---------|
E |--8--8--8--8--8--8--8---------||--8--8--8--8--8--8--8---------|
A |--8--8--8--8--8--8--8---------||--8--8--8--8--8--8--8---------|
	The last   Time    you    allowed   yourself to be seen.

B |------------------------------||------------------------------|
Gb|------------------------------||------------------------------|
D |-------------------14---------||-------------------14---------|
A |-14-14-14-15-14-12-12---------||-14-14-14-15-14-12-12---------|
E |-12-12-12-12-12-12-12---------||-12-12-12-12-12-12-12---------|
A |-12-12-12-12-12-12-12---------||-12-12-12-12-12-12-12---------|
	So pretentious your lies	Unrelenting Disguise

B |------------------------------||------------------------------|
Gb|------------------------------||------------------------------|
D |--------------------10--------||--------------------10--------|
A |--8--8--8--10-10-8--8---------||--8--8--8--10-10-8--8---------|
E |--8--8--8--8--8--8--8---------||--8--8--8--8--8--8--8---------|
A |--8--8--8--8--8--8--8---------||--8--8--8--8--8--8--8---------|
	Creating tears in your eyes	Your mind whithers and dies

B |------------------------------||------------------------------|
Gb|------------------------------||------------------------------|
D |---------------------14-------||---------------------14-------|
A |-14--------h15p14p12-12-------||-14--------h15p14p12-12-------|
E |-12---------12-12-12-12-------||-12---------12-12-12-12-------|
A |-12---------12-12-12-12-------||-12---------12-12-12-12-------|
	Pretending to be   some- thing   you   are   not

B |------------------------------||------------------------------|
Gb|------------------------------||------------------------------|
D |--------------------10--------||------------------10----------|
A |--8--------10h10p8--8---------||--8------10h10p8--8-----------|
E |--8--------8--8--8--8---------||--8------8--8--8--8-----------|
A |--8--------8--8--8--8---------||--8------8--8--8--8-----------|
	Somwhere in the   mid- dle  you  are   now  caught

B |------------------------------||------------------------------|
Gb|------------------------------||------------------------------|
D |---------------------14-------||---------------------14-------|
A |-14--------h15p14p12-12-------||-14--------h15p14p12-12-------|
E |-12---------12-12-12-12-------||-12---------12-12-12-12-------|
A |-12---------12-12-12-12-------||-12---------12-12-12-12-------|
	You've nev- er  seen

B |------------------------------||------------------------------|
Gb|------------------------------||------------------------------|
D |------------------------------||------------------------------|
A |--8--8------8--8-10-----------||-10-10--8--------8--8---------|
E |--8--8------8--8-10-----------||-10-10--8--------8--8---------|
A |--8--8------8--8-10-----------||-10-10--8--------8--8---------|
	Who   you really are--

B |------------------------------||------------------------------|
Gb|------------------------------||------------------------------|
D |------------------------------||------------------------------|
A |--0--0--0--0--0--0--0---------||--0--0--0--0--0--0--0---------|
E |--0--0--0--0--0--0--0---------||--0--0--0--0--0--0--0---------|
A |--0--0--0--0--0--0--0---------||--0--0--0--0--0--0--0---------|
     I don't ever wanna see	     I don't ever wanna be

B |------------------------------||------------------------------|
Gb|------------------------------||------------------------------|
D |------------------------------||------------------------------|
A |-10---------10-10-10----------||--1--1--1--1------2/----------|
E |--8----------8--8--8----------||--1--1--1--1------3/----------|
A |--8----------8--8--8----------||--1--1--1--1------------------|
     like	you--			   Hollowman.

B |------------------------------||------------------------------|
Gb|------------------------------||------------------------------|
D |------------------------------||------------------------------|
A |--0--0--0--0--0--0--0---------||--0--0--0--0--0--0--0---------|
E |--0--0--0--0--0--0--0---------||--0--0--0--0--0--0--0---------|
A |--0--0--0--0--0--0--0---------||--0--0--0--0--0--0--0---------|
     I don't care what you give	     Hollowman you can't live

B |------------------------------||------------------------------|
Gb|------------------------------||------------------------------|
D |------------------------------||------------------------------|
A |-10---------10-10-10----------||--1--1--1--1------2/----------|
E |--8----------8--8--8----------||--1--1--1--1------3/----------|
A |--8----------8--8--8----------||--1--1--1--1------------------|
     like	this--

B |--------------------20--------||-------------------20---------|
Gb|------------------------------||------------------------------|
D |------------------------------||------------------------------|
A |--0--0--0--0--0--0------------||--0--0--0--0--0--0------------|
E |--0--0--0--0--0--0------------||--0--0--0--0--0--0------------|
A |--0--0--0--0--0--0------------||--0--0--0--0--0--0------------|
     Palm Muting		     Palm Muting
     I don't ever wanna see	     I don't ever wanna be

B |------------------------------||------------------------------|
Gb|------------------------------||------------------------------|
D |------------------------------||------------------------------|
A |-10---------10-10-10----------||--1--1--1--1------2/----------|
E |--8----------8--8--8----------||--1--1--1--1------3/----------|
A |--8----------8--8--8----------||--1--1--1--1------------------|
     like	you--			   Hollowman.

B |--------------------20--------||-------------------20---------|
Gb|------------------------------||------------------------------|
D |------------------------------||------------------------------|
A |--0--0--0--0--0--0------------||--0--0--0--0--0--0------------|
E |--0--0--0--0--0--0------------||--0--0--0--0--0--0------------|
A |--0--0--0--0--0--0------------||--0--0--0--0--0--0------------|
     Palm Muting		     Palm Muting
     I don't care what you give     Hollowman you can't live

B |------------------------------||------------------------------|
Gb|------------------------------||------------------------------|
D |------------------------------||------------------------------|
A |-10---------10-10-10----------||--1--1--1--1------2/----------|
E |--8----------8--8--8----------||--1--1--1--1------3/----------|
A |--8----------8--8--8----------||--1--1--1--1------------------|
     like	this--

B |------------------------------||------------------------------|
Gb|------------------------------||------------------------------|
D |-----9-----9-10------9----9-10||-----2-----2------------------|
A |--0-----0---------0-----0-----||--------------------0-----0---|
E |------------------------------||--3-----3--------1-----1------|
A |------------------------------||------------------------------|

B |------------------------------||------------------------------|
Gb|------------------------------||------------------------------|
D |-----9-----9-10------9----9-10||-----2-----2------------------|
A |--0-----0---------0-----0-----||--------------------0-----0---|
E |------------------------------||--3-----3--------1-----1------|
A |------------------------------||------------------------------|

B |------------------------------||------------------------------|
Gb|------------------------------||------------------------------|
D |-----9-----9-10------9----9-10||-----2-----2------------------|
A |--0-----0---------0-----0-----||--------------------0-----0---|
E |------------------------------||--3-----3--------1-----1------|
A |------------------------------||------------------------------|

B |------------------------------||------------------------------|
Gb|------------------------------||------------------------------|
D |------9-10/12p10\9/-10\-9\7---||-----2-----2------------------|
A |--0---------------------------||--------------------0-----0---|
E |------------------------------||--3-----3--------1-----1------|
A |------------------------------||------------------------------|

No Distortion
B |------------------------------||------------------------------|
Gb|------------------------------||------------------------------|
D |-------------------14---------||-------------------14---------|
A |-14-14-14-15-14-12-12---------||-14-14-14-15-14-12-12---------|
E |-12-12-12-12-12-12-12---------||-12-12-12-12-12-12-12---------|
A |-12-12-12-12-12-12-12---------||-12-12-12-12-12-12-12---------|
  "I --						   can't

Distortion
B |------------------------------||------------------------------|
Gb|------------------------------||------------------------------|
D |--------------------10--------||--------------------10--------|
A |--8--8--8--10-10-8--8---------||--8--8--8--10-10-8--8---------|
E |--8--8--8--8--8--8--8---------||--8--8--8--8--8--8--8---------|
A |--8--8--8--8--8--8--8---------||--8--8--8--8--8--8--8---------|
   remember..."   

B |------------------------------||------------------------------|
Gb|------------------------------||------------------------------|
D |-------------------14---------||-------------------14---------|
A |-14-14-14-15-14-12-12---------||-14-14-14-15-14-12-12---------|
E |-12-12-12-12-12-12-12---------||-12-12-12-12-12-12-12---------|
A |-12-12-12-12-12-12-12---------||-12-12-12-12-12-12-12---------|
	The last   time    you    cared    about anyone.

B |------------------------------||------------------------------|
Gb|------------------------------||------------------------------|
D |--------------------10--------||--------------------10--------|
A |--8--8--8--10-10-8--8---------||--8--8--8--10-10-8--8---------|
E |--8--8--8--8--8--8--8---------||--8--8--8--8--8--8--8---------|
A |--8--8--8--8--8--8--8---------||--8--8--8--8--8--8--8---------|
	The last   Time    you    allowed   yourself to be seen.

B |------------------------------||------------------------------|
Gb|------------------------------||------------------------------|
D |-------------------14---------||-------------------14---------|
A |-14-14-14-15-14-12-12---------||-14-14-14-15-14-12-12---------|
E |-12-12-12-12-12-12-12---------||-12-12-12-12-12-12-12---------|
A |-12-12-12-12-12-12-12---------||-12-12-12-12-12-12-12---------|
	So pretentious your lies	Unrelenting Disguise

B |------------------------------||------------------------------|
Gb|------------------------------||------------------------------|
D |--------------------10--------||--------------------10--------|
A |--8--8--8--10-10-8--8---------||--8--8--8--10-10-8--8---------|
E |--8--8--8--8--8--8--8---------||--8--8--8--8--8--8--8---------|
A |--8--8--8--8--8--8--8---------||--8--8--8--8--8--8--8---------|
	Creating tears in your eyes	Your mind whithers and dies

B |------------------------------||------------------------------|
Gb|------------------------------||------------------------------|
D |---------------------14-------||---------------------14-------|
A |-14--------h15p14p12-12-------||-14--------h15p14p12-12-------|
E |-12---------12-12-12-12-------||-12---------12-12-12-12-------|
A |-12---------12-12-12-12-------||-12---------12-12-12-12-------|
	Pretending to be   some- thing   you   are   not

B |------------------------------||------------------------------|
Gb|------------------------------||------------------------------|
D |--------------------10--------||------------------10----------|
A |--8--------10h10p8--8---------||--8------10h10p8--8-----------|
E |--8--------8--8--8--8---------||--8------8--8--8--8-----------|
A |--8--------8--8--8--8---------||--8------8--8--8--8-----------|
	Somwhere in the   mid- dle  you  are   now  caught

B |------------------------------||------------------------------|
Gb|------------------------------||------------------------------|
D |---------------------14-------||---------------------14-------|
A |-14--------h15p14p12-12-------||-14--------h15p14p12-12-------|
E |-12---------12-12-12-12-------||-12---------12-12-12-12-------|
A |-12---------12-12-12-12-------||-12---------12-12-12-12-------|
	You've nev- er  seen

B |------------------------------||------------------------------|
Gb|------------------------------||------------------------------|
D |------------------------------||------------------------------|
A |--8--8------8--8-10-----------||-10-10--8--------8--8---------|
E |--8--8------8--8-10-----------||-10-10--8--------8--8---------|
A |--8--8------8--8-10-----------||-10-10--8--------8--8---------|
	Who   you really are--

B |------------------------------||------------------------------|
Gb|------------------------------||------------------------------|
D |------------------------------||------------------------------|
A |--0--0--0--0--0--0--0---------||--0--0--0--0--0--0--0---------|
E |--0--0--0--0--0--0--0---------||--0--0--0--0--0--0--0---------|
A |--0--0--0--0--0--0--0---------||--0--0--0--0--0--0--0---------|
     I don't ever wanna see	     I don't ever wanna be

B |------------------------------||------------------------------|
Gb|------------------------------||------------------------------|
D |------------------------------||------------------------------|
A |-10---------10-10-10----------||--1--1--1--1------2/----------|
E |--8----------8--8--8----------||--1--1--1--1------3/----------|
A |--8----------8--8--8----------||--1--1--1--1------------------|
     like	you--			   Hollowman.

B |------------------------------||------------------------------|
Gb|------------------------------||------------------------------|
D |------------------------------||------------------------------|
A |--0--0--0--0--0--0--0---------||--0--0--0--0--0--0--0---------|
E |--0--0--0--0--0--0--0---------||--0--0--0--0--0--0--0---------|
A |--0--0--0--0--0--0--0---------||--0--0--0--0--0--0--0---------|
     I don't care what you give	     Hollowman you can't live

B |------------------------------||------------------------------|
Gb|------------------------------||------------------------------|
D |------------------------------||------------------------------|
A |-10---------10-10-10----------||--1--1--1--1------2/----------|
E |--8----------8--8--8----------||--1--1--1--1------3/----------|
A |--8----------8--8--8----------||--1--1--1--1------------------|
     like	this--

B |--------------------20--------||-------------------20---------|
Gb|------------------------------||------------------------------|
D |------------------------------||------------------------------|
A |--0--0--0--0--0--0------------||--0--0--0--0--0--0------------|
E |--0--0--0--0--0--0------------||--0--0--0--0--0--0------------|
A |--0--0--0--0--0--0------------||--0--0--0--0--0--0------------|
     Palm Muting		     Palm Muting
     I don't ever wanna see	     I don't ever wanna be

B |------------------------------||------------------------------|
Gb|------------------------------||------------------------------|
D |------------------------------||------------------------------|
A |-10---------10-10-10----------||--1--1--1--1------2/----------|
E |--8----------8--8--8----------||--1--1--1--1------3/----------|
A |--8----------8--8--8----------||--1--1--1--1------------------|
     like	you--			   Hollowman.

B |--------------------20--------||-------------------20---------|
Gb|------------------------------||------------------------------|
D |------------------------------||------------------------------|
A |--0--0--0--0--0--0------------||--0--0--0--0--0--0------------|
E |--0--0--0--0--0--0------------||--0--0--0--0--0--0------------|
A |--0--0--0--0--0--0------------||--0--0--0--0--0--0------------|
     Palm Muting		     Palm Muting
     I don't care what you give     Hollowman you can't live

B |------------------------------||------------------------------|
Gb|------------------------------||------------------------------|
D |------------------------------||------------------------------|
A |-10---------10-10-10----------||--1--1--1--1------2/----------|
E |--8----------8--8--8----------||--1--1--1--1------3/----------|
A |--8----------8--8--8----------||--1--1--1--1------------------|
     like	this--

B |---------------------------||---------------------------|
Gb|---------------------------||---------------------------|
D |---------------------------||---------------------------|
A |--0--0--0--0---------------||--0--0--0--0---------------|
E |--0--0--0--0------------------||--0--0--0--0------------------|
A |--0--0--0--0------------------||--0--0--0--0------------------|

B |------------------------------||------------------------------|
Gb|------------------------------||------------------------------|
D |------------------------------||------------------------------|
A |--2---2--2--2--2--2--2--2-----||--3--3--3--3--3--3/---5-------|
E |--3---3--3--3--3--3--3--3-----||--2--0--0--0--0--0------------|
A |------------------------------||------------------------------|

B |---------------------------||---------------------------|
Gb|---------------------------||---------------------------|
D |---------------------------||---------------------------|
A |--0--0--0--0---------------||--0--0--0--0---------------|
E |--0--0--0--0------------------||--0--0--0--0------------------|
A |--0--0--0--0------------------||--0--0--0--0------------------|
     Where--				is-- 		your--
B |------------------------------||------------------------------|
Gb|------------------------------||------------------------------|
D |------------------------------||------------------------------|
A |--2---2--2--2--2--2--2--2-----||--3--3--3--3--3--3/---5-------|
E |--3---3--3--3--3--3--3--3-----||--2--0--0--0--0--0------------|
A |------------------------------||------------------------------|
     sanity?

B |------------------------------||------------------------------|
Gb|------------------------------||------------------------------|
D |------------------------------||------------------------------|
A |--0--------0------0--0--0--0--||--0--------0------0--0--0--0--|
E |--0--------0------0--0--0--0--||--0--------0------0--0--0--0--|
A |--0--------0------0--0--0--0--||--0--------0------0--0--0--0--|
     *	      *	        *  *  *	     *	      *	     *	   *  *
     WHERE				IS		YOUR

B |------------------------------||------------------------------|
Gb|------------------------------||------------------------------|
D |------------------------------||------------------------------|
A |--2---2--2--2--2--2--2--2-----||--3--3--3--3--3--3/---5-------|
E |--3---3--3--3--3--3--3--3-----||--2--0--0--0--0--0------------|
A |------------------------------||------------------------------|
     SAAAAAAAAAAAAA-   NI- TY?!

B |------------------------------||------------------------------|
Gb|------------------------------||------------------------------|
D |------------------------------||------------------------------|
A |--0--------0------0--0--0--0--||--0--------0------0--0--0--0--|
E |--0--------0------0--0--0--0--||--0--------0------0--0--0--0--|
A |--0--------0------0--0--0--0--||--0--------0------0--0--0--0--|
     *	      *	        *  *  *	     *	      *	     *	   *  *

B |------------------------------||------------------------------|
Gb|------------------------------||------------------------------|
D |------------------------------||------------------------------|
A |--2---2--2--2--2--2--2--2-----||--3--3--3--3--3--3/---5-------|
E |--3---3--3--3--3--3--3--3-----||--2--0--0--0--0--0------------|
A |------------------------------||------------------------------|

B |------------------------------||
Gb|------------------------------||
D |------------------------------||
A |--0---------------------------||
E |--0---------------------------||
A |--0---------------------------||
Song: These Walls
Tuning: Standard (EADGBE)
~ = Hold Note

Guitar 1: Intro/Verse 1 (Guitar 2 doesn't come in until much later.)(Repeat 3x)
E-7---------------------------------------------------------------------
B-----------------------------------------------------------------------
G-------9-----------9---------------------------------------------------
D-----9---9-------9---9-------------------------------------------------
A---7-------7---7-------7-----------------------------------------------
E-9-----------7---------------------------------------------------------

Guitar 1: Chorus (Repeat 4x)
E---------------------|--After 4th Time Only----------------------------
B---------------------|-------------------------------------------------
G-6-6--2--4-4-4-6-2---|-6-6-6--4-4--2-2-2-------------------------------
D-6-6--2--4-4-4-6-2---|-6-6-6--4-4--2-2-2-------------------------------
A-4-4--0--2-2-2-4-0---|-4-4-4--2-2--0-0-0-------------------------------
E---------------------|-------------------------------------------------

Guitar 1: Verse 2 (Repeat 4x)
E-7~----------------------7~------------9~------9~----------------------
B---7-5-4~--7-9-------------7-5-4~--7/9-----7/9-------------------------
G---------------8-6-8-6-4-----------------------------------------------
D-----------------------------------------------------------------------
A-----------------------------------------------------------------------
E-----------------------------------------------------------------------

Guitar 1 Plays Chorus Again (without ending)

Guitar 1: Chorus Pt. 2 (Repeat 4x)(After 4x, play the ending from Chorus)
E-----------------------------------------------------------------------
B-----------------------------------------------------------------------
G-6-6--2-2-2------------------------------------------------------------
D-6-6--2-2-2--2-2--4-4-4-4----------------------------------------------
A-4-4--0-0-0--2-2--4-4-4-4----------------------------------------------
E-------------0-0--2-2-2-2----------------------------------------------

Guitar 2: Chorus Pt. 2 (Repeat 4x)
E-0-4-0-5-0-5--0-2-0-2-0-2---------------------------------------------
B----------------------------------------------------------------------
G----------------------------------------------------------------------
D----------------------------------------------------------------------
A----------------------------------------------------------------------
E----------------------------------------------------------------------

I'm really a bit lost with the bridge...If you can help, then post some corrections plz.

After bridge, play Intro/Verse 1
After that, play:

Chorus 4x
Chorus Pt. 2 8x (both guitars)

Guitar 1: Outro Pt. 1 (same as Chorus Pt. 2)

Guitar 2: Outro Pt. 2
E-7-------------------7-------------------7----------------------------
B---7-5-7-9-------------7-5-7-9-7-----------7-5-7-9--------------------
G-----------8-6-8-6-4-------------8-6-8-4-----------8-6-8-6-4----------
D----------------------------------------------------------------------
A----------------------------------------------------------------------
E----------------------------------------------------------------------

E-----------7~---------------------------------------------------------
B-------7-9----9-9-7-7-5-5-2~------------------------------------------
G---8-9----------------------------------------------------------------
D-9--------------------------------------------------------------------
A----------------------------------------------------------------------
E----------------------------------------------------------------------

Outro Pt. 3: Chorus Ending, and then play this around 3:52
E----------------------------------------------------------------------
B----------------------------------------------------------------------
G-----------9-9--------------------------------------------------------
D------9-9-------9-9---------------------------------------------------
A-7-7-----------------7~-----------------------------------------------
E----------------------------------------------------------------------trapt >> still frame - guitar tab

this is in drop b. i know it makes the string really loose but thats how
its played..or at least how i figured it out...good luck.

Tuning: Drop B
(B)(F#)(B)(E)(G#)(C#)-KEY
~ = vibrate note
> = slide
h = hammer one note


Riff 1: DISTORTED
|--------------------------------------------|
|--------------------------------------------|
|--------------------------------------7-7-7-|
|--------------------------------------7-7-7-|
|-5---3-----1---3-----5---3-----1---3--------|
|---0---0-0---0--0-0----0---0-0---0--0-------|

Riff 2: DISTORTED
|-----------------------------------10-10-10-|
|-----7-7-7-----7-7-7-----------8-8----------|
|-9-9-7-7-7-9-9-7-7-7-----7-7-7-7-7-7--7--7--|
|-7-7-7-7-7-7-7-7-7-7-7-7-5-5-5-5-5-5--5--5--|
|-5-5-5-5-5-5-5-5-5-5-5-5-5-5-5-5-5-5--5--5--|
|---------------------5-5-5-5-5-5-5-5--5--5--|

Riff 3: DISTORTED
|------------------------------------------------------------------------------------|
|-------7-------7-----7-------5-------5-----5-------3-------3------3-------5--6--5---|
|-7-7-7---7-7-7---7-7---5-5-5---5-5-5---5-5---3-3-3---3-3-3----3-3---5-5-5---------5-|
|------------------------------------------------------------------------------------|
|------------------------------------------------------------------------------------|
|------------------------------------------------------------------------------------|

Riff 4: DISTORTED
|-----10---10-10---10-------8---8-8---8--------6---6-6---6-------8---8-8---8---|
|---7----7-------7----7---5---5-----5---5----3---3-----3---3---5---5-----5---5-|
|-7---------------------5------------------3-----------------5-----------------|
|------------------------------------------------------------------------------|
|------------------------------------------------------------------------------|
|------------------------------------------------------------------------------|

Riff 5: CLEAN
part one.
|------------------------------------------------------------|
|-8---7---7h8-7h8-7-----7h8-7h8-7-----7h8-7h8-8>10-8-7-------|
|-------------------7-5-----------7-5------------------7-5-7-|
|------------------------------------------------------------|
|------------------------------------------------------------|
|------------------------------------------------------------|
part two.
|-22-22-22-22-22-22-22-22-20-20-20-20-20-20-20-18-18-18-18-18-18--17---15--17--|
|------------------------------------------------------------------------------|
|------------------------------------------------------------------------------|
|------------------------------------------------------------------------------|
|------------------------------------------------------------------------------|
|------------------------------------------------------------------------------|

Riff 6: CLEAN
|-----------------------------------------------------------------------------------------------|
|-----------------------------------------------------------------------------------------------|
|7-7-7-7--7-7-7-7--7-7-7-5-5-5-5--5-5-5-5--5-5-5-3-3-3-3--3-3-3-3--3-3-3-5-5-5-5--5-5-5-5--5-5-5|
|7-7-7-7--7-7-7-7--7-7-7-5-5-5-5--5-5-5-5--5-5-5-3-3-3-3--3-3-3-3--3-3-3-5-5-5-5--5-5-5-5--5-5-5|
|5-5-5-5--5-5-5-5--5-5-5-3-3-3-3--3-3-3-3--3-3-3-1-1-1-1--1-1-1-1--1-1-1-3-3-3-3--3-3-3-3--3-3-3|
|-----------------------------------------------------------------------------------------------|

Riff 7: DISTORTED
|--------------------------|
|--------------------------|
|-11-11-10-10-10-5-5-7-7-7-|
|----------------5-5-7-7-7-|
|--9--9--8--8--8-3-3-5-5-5-|
|--0--0--0--0--0-----0-0-0-|

Order:
INtro/Chorus one:
Riff 1 (x2)
Riff 2 (x2)
Verse one:
Riff 3 (x2)
Chorus two
Riff 1 (x2)
Riff 2 (x2)
Verse one:
Riff 3 (x2)
Riff 4 (x2)
Chorus three:
Riff 1 (x2)
Riff 2 (x2)
Bridge:
Riff 5 part one (x1)
Riff 5 part two (x1)
Riff 6 (x2) "im afraid I'm falling father away..."
Chrous four:
Riff 1 (x2)
Riff 2 (x2)
Trapt - Echo

Tabbed By: Timmy Chiasson
E-mail: amplified_band@hotmail.com

*=Harmonic

Intro
E---------------------------------------------------------------|
B---------------------------------------------------------------|
G---------------------------------------------------------------|
D----2---4---7-------2---4---------2---4---7-----2---4------7*--|
A----0---2---5-------0---2--4------0---2---5-----0---2---4------|
E---------------------------2----------------------------2------|
                    close my eyes...
A source tells me that this is the part to play here, repeat it a bunch, and play
it during the chorus too.

E: --0--2--4--5--4--2-------|
B: -------------------------|
G: -------------------------|
D: -------------------------|
A: -------------------------|
E: -------------------------|


then the intro with distortion.
E--------------------------------------------------------------------------|
B--------------------------------------------------------------------------|
G--------------------------------------------------------------------------|
D----------2---4---7-------2---4---------2---4---7-----2---4---------------|
A----------0---2---5-------0---2--4------0---2---5-----0---2---4-----------|
E---------------------------------2----------------------------2-----------|
Ill run away with you,.... By my side...
Verse
E--------5---5---4--4--4--------4--4--2--2--2------------------------------|
B--------------------------------------------------------------------------|
G--------------------------------------------------------------------------|
D--------------------------------------------------------------------------|
A--------------------------------------------------------------------------|
E--------------------------------------------------------------------------|
	I think about your face...

Then this with distortion
E-------------------------------------------------------------------|
B-------------------------------------------------------------------|
G-------------------------------------------------------------------|
D----------2---4---7-------2---4---------2---4---7-----2---4--------|
A----------0---2---5-------0---2--4------0---2---5-----0---2---4----|
E---------------------------------2----------------------------2----|
	Close my eyes

Not to sure about this part...any suggestions e-mail me.
play the first guitar part above that i said to play in the chorus here.
E--------------------------------------------------------|
B--------------------------------------------------------|
G--------------------------------------------------------|
D----------7-----7-----7---------4----4----4-------------|
A----------7-----7-----7---------4----4----4-------------|
E----------5-----5-----5---------2----2----2-------------|
	Asking whyyyy, ill run away with you
Then you go back to the verses.
Then to the intro with distortion, then this 2nd guitar part again.
Then back to the intro with distortion.

Also a little unsure of this interlude, but hey, first tab.
Repeat it a couple of times. use delay effect.
E--------9---7-------------------------------------|
B------------------10---9-----7--------------------|
G--------------------------------------------------|
D--------------------------------------------------|
A--------------------------------------------------|
E--------------------------------------------------|
The Game Tab by Trapt, www.Ultimate-Guitar.Com

this is my second tab I ever made and I have the song book so this should be perfect and 
I do make any mistakes e-mail at skateboy0404@verizon.net
im only 12 but im pretty good


ALL 6 STRING GUITARS TUNED TO 6E  5A  4D  3G  2B  1E

key
P=pull off
h=Hammer on
~=vibrato
s=slide
b=bend
                          THE GAME
                   Elec. Gtr. 2 clean tone
--------------------------------------------------------------------|
--------------------------------------------------------------------|
--------------------------------------------------------------------|
--------------------------------------------------------------------|
--------------------------------------------------------------------|
-7--7-7--7-7--7-7--7-7--7-7---7-7--7-7--7---------------------------|
                                                                       2x

--------------------------------------------------------------------|
--------------------------------------------------------------------|
--------------------------------------------------------------------|
--------------------------------------------------------------------|
--------------------------------------------------------------------|
-7--h5--5-5--5-5--5--h10-10-10--10-10--10---------------------------|

--------------------------------------------------------------------|
--------------------------------------------------------------------|
--------------------------------------------------------------------|
--------------------------------------------------------------------|
--------------------------------------------------------------------|
10-p7----7-7----7-7----7-7----7-7-h9-9-9--5-h7-----------5----------|

       Gtr. 1  clean tone

--------------------------------------5-----------------------------|
--3-2-0-----3-2-0------3-2-0-3-5-3-2----3---------------------------|
------------------------------------------4-------------------------|
--------------------------------------------------------------------|
--------------------------------------------------------------------|
--------------------------------------------------------------------|

                   Elec. Gtr. 2 clean tone
--------------------------------------------------------------------|
--------------------------------------------------------------------|
--------------------------------------------------------------------|
--------------------------------------------------------------------|
--------------------------------------------------------------------|
-7--7-7--7-7--7-7--7-7--7-7---7-7--7-7--7---------------------------|
                                                                       2x

--------------------------------------------------------------------|
--------------------------------------------------------------------|
--------------------------------------------------------------------|
--------------------------------------------------------------------|
--------------------------------------------------------------------|
-5--5--5-5--5-5--5--5-5--5-5--5-5--5-5--5---------------------------|

       Gtr. 1  clean tone

--------------------------------------5-----------------------------|
--3-2-0-----3-2-0------3-2-0-3-5-3-2----3---------------------------|
------------------------------------------4-------------------------|
--------------------------------------------------------------------|
--------------------------------------------------------------------|
--------------------------------------------------------------------|

hold__________________

---------------------------------------------------------------------|
---------------------------------------------------------------------|
---------------------------------------------------------------------|
------------5--5-5--5---------7-7--7---7-s9-9-9---9------------------|
---------------------------------------------------------------------|
-3--3-3--3--------------3-h5-----------5-s7-7-7---7------------------|


--------------------------------------------------------------------|
--------------------------------------------------------------------|
--------------------------------------------------------------------|
-7------------------7---------xxxxxxxxxxxx----7-----------9-9-------|
-7------------------7---------xxxxxxxxxxxx----7----------9----------|
-9------------------9---------xxxxxxxxxxxx----9---------7-----------|


--------------------------------------------------------------------------|
--------------------------------------------------------------------------|
-14-h16-16-16-16-16-16-19-19-19-18-18-18-14-14-14-9-9-9-11-11-11-11-11-11-|
--------------------------------------------------------------------------| 2x
--------------------------------------------------------------------------|
--------------------------------------------------------------------------|


--------------------------------------------------------------------|
-------12b----------------------------------------------------------|
--------------------------------------------------------------------|
--------------------------------------------------------------------|
--------------------------------------------------------------------|
--------------------------------------------------------------------|


--------------------------------------------------------------------|
--------------------------------------------------------------------|
--------------------------------------------------------------------|
--------------------------------------------------------------------|
-2---2---2----------------------------------------------------------|
---0---0---0--------------------------------------------------------|


--------------------------------------------------------------------|
--------------------------------------------------------------------|
--------------------------------------------------------------------|
-11s---99---99xxxx----11s---99xxxx--11s---99xxxx--------------------|    2x
-11s---99---99xxxx----11s---99xxxx--11s---99xxxx--------------------|
-9-s---77---77xxxx----9-s---77xxxx--9-s---77xxxx--------------------|

all done its perfect  I check it and tried it its done and just in case if i did mess up 
me at skateboy0404@verizon.net

                       good luck
Trapt
When All Is Said and Done
Trapt
Tuning: Drop D and a 1/2 step down, (Drop d flat)
tabbed by: Rob Walden

Intro
--------------------------------------------
--------------------------------------------
--------------------------------------------
-13-13-13-13-9-9-9/9-6-6-6/6-9-9-9/9-6-6-6/6
-11-11-11-11-7-7-7/9-4-4-4/6-7-7-7/9-4-4-4/6
-11-11-11-11-7-7-7/9-4-4-4/6-7-7-7/9-4-4-4/6

Verse-same as above but repeated as needed (listen to song)

Prechorus<---sorry i do not know it

Chorus "where will you be..."
-------------------
-------------------
-------------------
-12-12-13-13-8-8-6-
-10-10-13-13-6-6-6-
-10-10-13-13-6-6-6-

Afterchorus riff
------------------------
------------------------
-------------------13-13
-------------12-12------
-------12-12------------
-10-10------------------

Bridge "These thoughts trickle down..."
---------------------------------
---------------------------------
---------------------------------
----10-12----10-12---8-10---8-10-
-10-------10-------8------8------
---------------------------------

Outro
--------------
--------------
--------------
-5-5-5-5-5-5-5
-3-3-3-3-3-3-3
-3-3-3-3-3-3-3<---let last note ring

Song Order
Intro X1
Verse X2
ChorusX2
Afterchorus riffX2
Verse X2
ChorusX4
BridgeX7
ChorusX4
Outro X1

Thats it except for the prechorus, ill put it in the correction box when i figure
it out. until then leave praise/hatemail up in the correction box or just IM me
at kornfellow91.thanks and enjoy.
Band- Trapt
Song- Enigma

Standard tuning

intro: w/ flanger, clean
e ---------------------------------------------------|
b ---------------------------------------------------|
g ----------9------------------------9---------------|
d -9------9---9--------7----9------9---9--------7----|
a --------------7------------------------7-----------|
E ---------------------------------------------------|

verse: (i use a phaser) clean
e --------------------------------------------|
b --------------------------------------------|
g --------------------------------------------|
d ----9---------7--------12---------10--------|
a -0-----10--0-----9--0------14--0------12----|
E --------------------------------------------|

e ---------------------------------------------------|
b -------8------------8------------------------------|
g -----0---0--------0---0----------------------------|
d ---9-------9----9-------9--------------------------|
a -7------------7------------------------------------|
E ---------------------------------------------------|

Chorus distorted:
e ----------------------------------------------------|
b -10-10-10--8-8-8--7-7-7--8-8-8----------------------|
g ----------------------------------------------------|X 3 then:
d -7--7--7---5-5-5--4-4-4--5-5-5----------------------|
a ----------------------------------------------------|
E ----------------------------------------------------|

e ---------------------------------------------------|
b -/15--15-15-15-15--15-15-15-15--15-15-15-15--------|
g ---------------------------------------------------|
d -/12--12-12-12-12--12-12-12-12--12-12-12-12--------|
a ---------------------------------------------------|
E ---------------------------------------------------|

part at 2:09, distorted:
e ---------------------------------------------------|
b -8-8-8-8-7---------8-8-8-8-7-----------------------|
g -----------9-7~--------------9-7~------------------|
d ---------------------------------------------------|
a ---------------------------------------------------|
E ---------------------------------------------------|

then:
e -14------12-----10-----8-------------------------------------|
b ----------------------------/10-8-7-7h8-7----/10-8-7-8~~-----|
g ----11\\9----9\\7----7\\5--------------------9---------------|
d -------------------------------------------------------------|
a -------------------------------------------------------------|
E -------------------------------------------------------------|

part at 2:32, w/ delay and flanger:
e ---------------------------------------------------|
b -8~~------8---8------10----(10)----8----(8)--------|
g ---------------------------------------------------|
d --------9---9--------------------------------------|
a ---------------------------------------------------|
E ---------------------------------------------------|

cont:
e ---------------------------------------------------|
b -7h8-7----(7h8-7-----------------------------------|
g -------7---------7)--7/9--(7/9)--------------------|
d ---------------------------------------------------|
a ---------------------------------------------------|
E ---------------------------------------------------|

\"Don\'t be the one to...\" (2:56)
e ---------------------------------------------------|
b ---------------------------------------------------|
g ---------------------------------------------------|
d -7-7-7-7-7-7--3-3-3-3--7-7-7-7-7-7--5-5-5-5--------|
a -7-7-7-7-7-7--3-3-3-3--7-7-7-7-7-7--5-5-5-5--------|
E -5-5-5-5-5-5--1-1-1-1--5-5-5-5-5-5--3-3-3-3--------|


that\'s all the parts, you can piece it together.
Stories Tab by Trapt, www.Ultimate-Guitar.Com

Tabber: Daniel S.
Email: drs2004@hotmail.com
 
This song is track 10 on the debut album from Trapt. It is a great song and
fairly easy to learn if you listen to the song while you play for the rhythms.
I'd like to see more Trapt on here, they're a great band. I'll try to do my part
and put more Trapt on here as well.
 
**I included the lyrics that correspond with when the chords are played for ease**

Standard Tuning

Intro
(Play twice)              
         B                 B                             
|-7-7-7-7-7-7-7-7-|-7-7-7-7-7-7-7--7-|-----------------|-------------|
|-7-7-7-7-7-7-7-7-|-7-7-7-7-7-7-7--7-|-----------------|-------------|
|-8-8-8-8-8-8-8-8-|-8-8-8-8-8-8-8--8-|-8-8-8-8-8-8-8h9-|11-9-8-9-8-4-|
|-9-9-9-9-9-9-9-9-|-9-9-9-9-9-9-9h11-|-9-9-9-9-9-9-9-9-|-------------|
|-9-9-9-9-9-9-9-9-|-9-9-9-9-9-9-9--9-|-6-6-6-6-6-6-6-6-|-------------|
|-7-7-7-7-7-7-7-7-|-7-7-7-7-7-7-7--7-|-----------------|-------------|
 
Verse
(Play twice)  
         B                  B                             
|-7-7-7-7-7-7-7-7-|-7-7-7-7-7-7-7--7-|-----------------|-------------|
|-7-7-7-7-7-7-7-7-|-7-7-7-7-7-7-7--7-|-----------------|-------------|
|-8-8-8-8-8-8-8-8-|-8-8-8-8-8-8-8--8-|-8-8-8-8-8-8-8h9-|11-9-8-9-8-4-|
|-9-9-9-9-9-9-9-9-|-9-9-9-9-9-9-9h11-|-9-9-9-9-9-9-9-9-|-------------|
|-9-9-9-9-9-9-9-9-|-9-9-9-9-9-9-9--9-|-6-6-6-6-6-6-6-6-|-------------|
|-7-7-7-7-7-7-7-7-|-7-7-7-7-7-7-7--7-|-----------------|-------------|

I found a line    and then it grew   I found myself   still thinking.. 

I felt so empty   and now I'm fine   But still it's.. when will you.. 
 
Chorus
 
|-----------------|---------------------|-----------------|---------|
|-----------------|---------------------|-----------------|---------|
|-8-8-8-8-4-4-4-4-|-11-11-11-11-6-6-6-6-|-8-8-8-8-4-4-4-4-|-4-4-6-6-|
|-9-9-9-9-4-4-4-4-|-11-11-11-11-6-6-6-6-|-9-9-9-9-4-4-4-4-|-4-4-6-6-|
|-6-6-6-6-2-2-2-2-|--9--9--9--9-4-4-4-4-|-6-6-6-6-2-2-2-2-|-2-2-4-4-|
|-----------------|---------------------|-----------------|---------|
 
Too much of...    stories in our...     I think its...     don't you?
                                                                          
|-----------------|---------------------|-----------------|---------
|-----------------|---------------------|-----------------|---------
|-8-8-8-8-4-4-4-4-|-11-11-11-11-6-6-6-6-|-8-8-8-8-4-4-4-4-|-4-4-6-6-
|-9-9-9-9-4-4-4-4-|-11-11-11-11-6-6-6-6-|-9-9-9-9-4-4-4-4-|-4-4-6-6-
|-6-6-6-6-2-2-2-2-|--9--9--9--9-4-4-4-4-|-6-6-6-6-2-2-2-2-|-2-2-4-4-
|-----------------|---------------------|-----------------|---------
 
 Too much of...   stories in our...     I think it's...   walk away...
 
--------------------|
--------------------|
-----------------4--|
----------------4---|
-7---6---4-----2--- |
---0---0---0--2---- |
 
.......heeeeeeeeere
 
 
Bridge
(Play twice)
         B                  B                             
|-7-7-7-7-7-7-7-7-|-7-7-7-7-7-7-7--7-|-----------------|-------------|
|-7-7-7-7-7-7-7-7-|-7-7-7-7-7-7-7--7-|-----------------|-------------|
|-8-8-8-8-8-8-8-8-|-8-8-8-8-8-8-8--8-|-8-8-8-8-8-8-8h9-|11-9-8-9-8-4-|
|-9-9-9-9-9-9-9-9-|-9-9-9-9-9-9-9h11-|-9-9-9-9-9-9-9-9-|-------------|
|-9-9-9-9-9-9-9-9-|-9-9-9-9-9-9-9--9-|-6-6-6-6-6-6-6-6-|-------------|
|-7-7-7-7-7-7-7-7-|-7-7-7-7-7-7-7--7-|-----------------|-------------|

 
Stories in our lives... we keep them all insiiiiiiiiiiide....
 
Verse
(Play 3 times)

         B                  B                             
|-7-7-7-7-7-7-7-7-|-7-7-7-7-7-7-7--7-|-----------------|-------------|
|-7-7-7-7-7-7-7-7-|-7-7-7-7-7-7-7--7-|-----------------|-------------|
|-8-8-8-8-8-8-8-8-|-8-8-8-8-8-8-8--8-|-8-8-8-8-8-8-8h9-|11-9-8-9-8-4-|
|-9-9-9-9-9-9-9-9-|-9-9-9-9-9-9-9h11-|-9-9-9-9-9-9-9-9-|-------------|
|-9-9-9-9-9-9-9-9-|-9-9-9-9-9-9-9--9-|-6-6-6-6-6-6-6-6-|-------------|
|-7-7-7-7-7-7-7-7-|-7-7-7-7-7-7-7--7-|-----------------|-------------|

 
Look at me        still in your mind  our memories     so intertwined
 
Well you broke... and found your way  and so did I    no need to stay
 
The same ol'...   tried and true...   we've been...  let's look for...
 

Chorus
 
|-----------------|---------------------|-----------------|---------|
|-----------------|---------------------|-----------------|---------|
|-8-8-8-8-4-4-4-4-|-11-11-11-11-6-6-6-6-|-8-8-8-8-4-4-4-4-|-4-4-6-6-|
|-9-9-9-9-4-4-4-4-|-11-11-11-11-6-6-6-6-|-9-9-9-9-4-4-4-4-|-4-4-6-6-|
|-6-6-6-6-2-2-2-2-|--9--9--9--9-4-4-4-4-|-6-6-6-6-2-2-2-2-|-2-2-4-4-|
|-----------------|---------------------|-----------------|---------|
 
Too much of...    stories in our...     I think its...     don't you?
                                                                          
|-----------------|---------------------|-----------------|---------
|-----------------|---------------------|-----------------|---------
|-8-8-8-8-4-4-4-4-|-11-11-11-11-6-6-6-6-|-8-8-8-8-4-4-4-4-|-4-4-6-6-
|-9-9-9-9-4-4-4-4-|-11-11-11-11-6-6-6-6-|-9-9-9-9-4-4-4-4-|-4-4-6-6-
|-6-6-6-6-2-2-2-2-|--9--9--9--9-4-4-4-4-|-6-6-6-6-2-2-2-2-|-2-2-4-4-
|-----------------|---------------------|-----------------|---------
 
 Too much of...   stories in our...     I think it's...   walk away...
 
--------------------|
--------------------|
-----------------4--|
----------------4---|
-7---6---4-----2--- |
---0---0---0--2---- |
 
.......heeeeeeeeere

 
Bridge 2  
(There is one guitar playing chords and another playing a riff, I'm
including both)
 
Guitar 1 (riff played at same time as guitar 2; lyrics are same as
below)
 
|-7------7-11-12---12-12-11-9--7-|-7-9-12h14p12-11-9h11h12-7-|
|--------------------------------|---------------------------|
|--------------------------------|---------------------------|
|--------------------------------|---------------------------|
|--------------------------------|---------------------------|
|--------------------------------|---------------------------|
 
|-7-11-12---12-12-11-9--7-|-7-9-11-14-7-14-7-|
|-------------------------|------------------|
|-------------------------|------------------| 
|-------------------------|------------------|
|-------------------------|------------------|
|-------------------------|------------------|
 
Guitar 2 (playing chords at same time)

|-------------------------|----------------------------------|  
|-------------------------|----------------------------------|
|-11-11-11-11-11-11-11-11-|-9--9--9--9--8--8--8--8-------4-4-|
|-11-11-11-11-11-11-11-11-|-9--9--9--9--9--9--9--9-------4-4-|
|--9--9--9--9--9--9--9--9-|-7--7--7--7--6--6--6--6-------2-2-|
|-------------------------|----------------------------------|
Do you remember...        lying on the  beach so...      night
  
Do you remember...        running...    the sprinklers.. night
  
Do you remember....       all the songs that I have...   you
 
                          all the songs that I have...  youuuuu....
 
 
Short Bridge
(Repeat 6 times through the next solo below)
 
|-----------------|-----------------|-----------------|---------|
|-----------------|-----------------|-----------------|---------|
|-4-4-4-4-4-4-4-4-|-8-8-8-8-8-8-8-8-|-9-9-9-9-9-9-9-9-|-4-4-4-4-|
|-4-4-4-4-4-4-4-4-|-9-9-9-9-9-9-9-9-|-9-9-9-9-9-9-9-9-|-4-4-4-4-|
|-2-2-2-2-2-2-2-2-|-6-6-6-6-6-6-6-6-|-7-7-7-7-7-7-7-7-|-2-2-2-2-|
|-----------------|-----------------|-----------------|---------|
...........ooooooooo........                 ...for you...    
 
Solo
(repeat 5 times while Short Bridge plays in background)

|-14-14-----12-19-12-11----11-9-7-9-7-7----7-9-7-11-7-9-7-----7-|
|---------------------------------------------------------------|
|---------------------------------------------------------------|
|---------------------------------------------------------------|
|---------------------------------------------------------------|
|---------------------------------------------------------------|
 
I remember...       the way you made me feel when I was with you
 
I remember...       the smile that always brought me back to you
 
That look in your eyes... I never thought that this could be untrue
 
That look in your eyes... I never thought that this could be
                                                untruuuuuuuue....
 
Bridge (I don't know what else to call it)
(repeat 4 times)

|-----------------|---------------------| 
|-----------------|---------------------| 
|-8-8-8-8-4-4-4-4-|-11-11-11-11-6-6-6-6-| 
|-9-9-9-9-4-4-4-4-|-11-11-11-11-6-6-6-6-| 
|-6-6-6-6-2-2-2-2-|--9--9--9--9-4-4-4-4-| 
|-----------------|---------------------| 
 
.....untruuuee....   doo doo daaaah dah........
 
*after 4th time it flows into the prechorus again one last time...
 
Chorus
 
|-----------------|---------------------|-----------------|---------|
|-----------------|---------------------|-----------------|---------|
|-8-8-8-8-4-4-4-4-|-11-11-11-11-6-6-6-6-|-8-8-8-8-4-4-4-4-|-4-4-6-6-|
|-9-9-9-9-4-4-4-4-|-11-11-11-11-6-6-6-6-|-9-9-9-9-4-4-4-4-|-4-4-6-6-|
|-6-6-6-6-2-2-2-2-|--9--9--9--9-4-4-4-4-|-6-6-6-6-2-2-2-2-|-2-2-4-4-|
|-----------------|---------------------|-----------------|---------|
 
Too much of...    stories in our...     I think its...     don't you?
                                                                          
|-----------------|---------------------|-----------------|---------
|-----------------|---------------------|-----------------|---------
|-8-8-8-8-4-4-4-4-|-11-11-11-11-6-6-6-6-|-8-8-8-8-4-4-4-4-|-4-4-6-6-
|-9-9-9-9-4-4-4-4-|-11-11-11-11-6-6-6-6-|-9-9-9-9-4-4-4-4-|-4-4-6-6-
|-6-6-6-6-2-2-2-2-|--9--9--9--9-4-4-4-4-|-6-6-6-6-2-2-2-2-|-2-2-4-4-
|-----------------|---------------------|-----------------|---------
 
 Too much of...   stories in our...     I think it's...   walk away...
 

|-------------------|--------------------------------------|
|-------------------|--------------------------------------|
|-----------------4-|-----------------------------4---4----|
|----------------4--|----------------------------4-----4---|
|-7---6---4-----2---|--7-------6-------4--------2-------2--|
|---0---0---0--2----|------0-------0-------0---2---------2-|
 
.......heeeeeeeeere      (then one last time more slowly)
 
h- hammer on
p- pull off
b - bend string up
r - release bend
/ - slide up
\ - slide down
v - vibrato (sometimes written as ~)
t - right hand tap
x - play 'note' with heavy damping

The entire song is tabbed in order, so just follow along for the whole song,
that's it! It's really not that much to learn, as most of the
chords/verses repeat, etc. Email me with any questions. I spent many
hours perfecting this and I'm sure its right. It's also the only tab of this song
you'll find. Hope it was helpful!
New Beginning Tab by Trapt, www.Ultimate-Guitar.Com

hey this is like my 10th tab today so it should be perfect good luck its long
tuning:1E 2B 3G 4D 5A 6E
key
P=pull off
H=hammer on
\=slide up
/=slide down


                             New Beginning


------------------------------------------------|
------------------------------------------------|
-------0-----------------------0--------0---0---|
-----4---4--------------------------------------|     2x
---5-------5---------------8--------------------|
-3-----------3---3-h6----6---6---6-h8-8---8---8-|


p.m.________
--------------6-6-6-----------------------------|
--------------6-6-6-----------------------------|
--------------7-7-7-----------------------------|
-6-6-6-6-6-6--8-8-8-----------------------------|     2x
-6-6-6-6-6-6--6-6-6-----------------------------|
-4-4-4-4-4-4--6-6-6-----------------------------|

pre lead


------------------------------------------------------|
------------------------------------------------------|
-19---------19-17---------17-15---------15-14---------|
----17-0-17-------15-0-15-------13-0-13-------12~~~~~-|
------------------------------------------------------|
------------------------------------------------------|

-----------------6-6-6----|
-----------------6-6-6----|
-----------------7-7-7----|
-6-6-6-6-6-6-6---8-8-8----|    2x
-6-6-6-6-6-6-6---6-6-6----|
-4-4-4-4-4-4-4---6-6-6----|


-------------------------------------------------------|
-------------------------------------------------------|
-19---------19-19---------19-17---------17--17-19~~~~~-|
----17-0-17-------17-0-17-------15-0-15----------------|
-------------------------------------------------------|
-------------------------------------------------------|

clean tone elec. gtr 1
------------------------------------------------------|
------------------------------------------------------|
-19---------19-17---------17-15---------15-14---------|
----17-0-17-------15-0-15-------13-0-13-------12------|   3x
------------------------------------------------------|
------------------------------------------------------|


------3--------3--------5----------------7----------3-------3------|
---7-----7---7------------8-----------10---8--8---7---7---7--------|
-0---------0------------------------------------0-------0-----5-8--|
-----------------5-8--8---8--8--10-10------------------------------|
-------------------------------------------------------------------|
-------------------------------------------------------------------|


----5-----------------7-------|
------8------------10---8-8---|
------------------------------|
-8----8---8-h10-10------------|
------------------------------|
------------------------------|


-----------------6-6-6----|
-----------------6-6-6----|
-----------------7-7-7----|
-6-6-6-6-6-6-6---8-8-8----|    2x
-6-6-6-6-6-6-6---6-6-6----|
-4-4-4-4-4-4-4---6-6-6----|


------------------------------------------------|
------------------------------------------------|
-------0-----------------------0--------0---0---|
-----4---4--------------------------------------|     2x
---5-------5---------------8--------------------|
-3-----------3---3-h6----6---6---6-h8-8---8---8-|


------------------------------------------------|
------------------------------------------------|
----------12----0-15-12----0--------------------|
-------12----12--------------12-----------------|
----13------------------13------13--------------|
-11---------------11----------------------------|


------------------------------------------------|
------------------------------------------------|
--15-12----0----------15-12----12---------------|
-------------12-------------12----12------------|
--------13------13-------------------15---------|
--13---------------10---------------------------|


-----------------------------------|
---------12-------------12---------|
------12----12-------12---12-------|
--------------15-------------15----|
---15--------------13--------------|
-13--------------13----------------|


------------------------------------------------|
------------------------------------------------|
----------12----0-15-12----0--------------------|
-------12----12--------------12-----------------|  2x
----13------------------13------13--------------|
-11---------------11----------------------------|

-----------------------------------|
---------12-------------12---------|
------12----12-------12---12-------|
--------------15-------------15----|    2x
---15--------------13--------------|
-13--------------13----------------|


------------------------------------|
------------------------------------|
------------------------------------|
------------------------------------|
---------------8-10-----------------|
-6-------------6--8---------3-------|


------------------------------------|
------------------------------------|
------------------------------------|
------------------------------------|
---------------------8-10-----------|
-3-6-----------------6--8-----------|


-----------------6-6-6----|
-----------------6-6-6----|
-----------------7-7-7----|
-6-6-6-6-6-6-6---8-8-8----|
-6-6-6-6-6-6-6---6-6-6----|
-4-4-4-4-4-4-4---6-6-6----|


----------------------------|
----------------------------|
----------------------------|
-6-6-6-6-6-6-6-6-6-6-6-6----|
-6-6-6-6-6-6-6-6-6-6-6-6----|
-4-4-4-4-4-4-4-4-4-4-4-4----|


-10---10---10-10--------13~~~13~~~13-13---------|
-----------------13-11------------------13--11--|
------------------------------------------------|
------------------------------------------------|
------------------------------------------------|
------------------------------------------------|


----------------------------|
----------------------------|
-12-12-12-10-12-14-10-12-14-|
----------------------------|
----------------------------|
----------------------------|


----------------------------|
----------------------------|
-12--12--12-10-12-----------|
----------------------------|
----------------------------|
----------------------------|


-13-10----13-10----13-10----|
-------11-------11-------11-|
----------------------------|
----------------------------|    2x
----------------------------|
----------------------------|


------------------------------------------|
-10--11-11-10-11-10-11-13-11-10-----------|
--------------------------------10-12-----|
------------------------------------------|
------------------------------------------|
------------------------------------------|


-15-10----15-10----15-10----|
-------13-------13-------13-|
----------------------------|
----------------------------|   2x
----------------------------|
----------------------------|


-13-10----13-10----13-10----|
-------11-------11-------11-|
----------------------------|
----------------------------|
----------------------------|
----------------------------|


----------------------------------|
10-11-10----10-13-11-10-----------|
---------12-------------12~~~~~~~-|
----------------------------------|
----------------------------------|
----------------------------------|


-----------------------------|
-----------------------------|
12~~~~~~~~~~~~~~~~~~~~~~~~~~~
-----------------------------|
-----------------------------|
-----------------------------|


-----------------------------|
-----------------------------|
14~~~~~~~~~~~~~~~~~~~~~~~~~~~
-----------------------------|
-----------------------------|
-----------------------------|


-----------------------------|
-----------------------------|
15~~~~~~~~~~~~~~~~~~~~~~~~~~~
-----------------------------|
-----------------------------|
-----------------------------|


-----------------------------|
-----------------------------|
17---------------------------|
-----------------------------|
-----------------------------|
-----------------------------|


-15-15-15-15-15-15-15-15-15-15-15-15-|
-------------------------------------|
-------------------------------------|
-------------------------------------|
-------------------------------------|
-------------------------------------|

~~~~~~~~~~~~~~~~~~~~~~~~~~~~~~~~~~~~~~~
15-------------------------------------|
---------------------------------------|
---------------------------------------|
---------------------------------------|
---------------------------------------|
---------------------------------------|


all done and finally sorry if thats a long song thats just how they made it
and if i made any mistakes e-mail me       skateboy0404@verizon.net
                       good luck and rock hard
That's the whole album later
Добавлено: 26.07.2013
Другие материалы по этой песне:
  • Аккорды и текст

Страница создана 26.07.2013
http://primanota.ru/trapt/trapt-chords.htm
Привет, Гость.
Предлагаем пройти революционный курс по гитаре.
Подарок от PrimaNota.Ru, забирай!