PrimaNota.ru - самый крупный в мире бесплатный архив песенных текстов, аккордов, табулатур и нот


Trapeze - Makes You Wanna Cry - таба, видео

Регистрация Запомнить меня
Войти через:  Facebook Google Twitter Vk Yandex Mail.ru

Trapeze - Makes You Wanna Cry - таба, видео

Печатать
Просмотров: 77
 Makes You Wanna Cry- Trapeze 
 
 Guitar I- Main Riff Overdriven Guitar 
e|-------------------------|
B|-------------------------|
G|-----5---5s7---5---------|x8
D|-------7---------5p3-----|
A|---5-----------------5v--|
D|-------------------------|
 
 Guitar II- Main Riff Overdriven Guitar [Harmony]
e|-----------------------|
B|-----------------------|
G|-----------------------|x8
D|-----------------------|
A|---------5v---3--------|
D|---0-3-0--------5s3s0--|

 Riff 2- Overdriven Guitar
e|--------------|---------------|
B|--------------|---------------|
G|--------------|---------------|x4 and finish with a D5 chord, then replay the riff.
D|---2s4s2s7v---|-----------2---|Do this twice, then go from the Main Riff to Riff 3.
A|---0-----0----|---0-0h3h4-----|
D|--------------|---------------|


 Riff 3- Overdriven Guitar
e|----------|---------------|             |---------|
B|----------|---------------|             |---------|
G|----------|---------------|x3           |---------|<-----------------------------------
D|---7-10---|---12-10-7-7---|Finish with- |---5-3---|Then play the c5 and b5 bit, [here]^
A|---5-8----|---10s8s-5-5---|             |---3-1---|and alternate with a play of the riff.
D|----------|---------------|             |---------|Do this thrice.Use track for clarification.
               

 Solo- Overdriven Guitar [First Licks]
e|---------------------------|----------------------------------|
B|---13p12p10----------------|---13p12p10-----------------------|
G|------------10-------10v---|------------10------10bu11br10v---|x2
D|---------------10h12-------|---------------10h12--------------|
A|---------------------------|----------------------------------|
D|---------------------------|----------------------------------|

e|------------------------|--------------------------------|
B|------------------------|--------------------------------|
G|---------10-10b11-10v---|---------10-10b11-10bu11br10v---|x2
D|---10h12----------------|---10h12------------------------|Then just improvise in D.
A|------------------------|--------------------------------|
D|------------------------|--------------------------------|

 These are basically all the parts, for an problems with timing or order refer to the track.
 
 2011 J O'Baoigheallain

 http://www.myspace.com/trapezetheband
Добавлено: 13.07.2012
Другие материалы по этой песне:
  • Аккорды и текст

Страница создана 13.07.2012
http://primanota.ru/trapeze/makes-you-wanna-cry-chords.htm
Привет, Гость.
Предлагаем пройти революционный курс по гитаре.
Подарок от PrimaNota.Ru, забирай!