PrimaNota.ru - самый крупный в мире бесплатный архив песенных текстов, аккордов, табулатур и нот


Trap Them - Day Thirty Six Scars Align - таба, видео

Регистрация Запомнить меня
Войти через:  Facebook Google Twitter Vk Yandex Mail.ru

Trap Them - Day Thirty Six Scars Align - таба, видео

Печатать
Просмотров: 93
Trap Them - Day Thirty Six: Scars Align
Darker Handcraft (2011)
Tabbed By ruker
Dropped C Tuning (CGCFAD)

KEY:
-------
h Hammer-on
p Pull-off
/ Slide up

Intro (0:00)                                           4x
||-------------------------------------------------------||
||*-----------------------------------------------------*||
||-------------------------------------------------------||
||----------------------------------------------6--------||
||*---------------------------------------4--4----8-9-8-*||
||--0--0--0--0--1h3-0--0--0--3p1-0--0--0-----------------||


Riff A (0:29)
||-------------------------------------------------------||
||*-----------------------------------------------------*||
||-------------------------------------------------------||
||----------------------------------------------6--------||
||*-0--0--0--0--1h3-0--0--0--3p1-0--0--0--4--4----8-9-8-*||
||--0--0--0--0--1h3-0--0--0--3p1-0--0--0-----------------||


Riff B (0:44)
||------------------------------------------||
||------------------------------------------||
||-7------6--3------6--7------6--3----6-----||
||------------------------------------------||
||-5------4--1------4--5------4--1----4-----||
||------------------------------------------||


Riff A (0:52)
||-------------------------------------------------------||
||*-----------------------------------------------------*||
||-------------------------------------------------------||
||----------------------------------------------6--------||
||*-0--0--0--0--1h3-0--0--0--3p1-0--0--0--4--4----8-9-8-*||
||--0--0--0--0--1h3-0--0--0--3p1-0--0--0-----------------||


Riff B (1:06)
||----------------------------------------------------------------------------||
||----------------------------------------------------------------------------||
||-7------6--3------6--7------6--3----6-----7------6--3------6--2-------------||
||----------------------------------------------------------------------------||
||-5------4--1------4--5------4--1----4-----5------4--1------4--0-------------||
||----------------------------------------------------------------------------||


Riff C (1:21)
||------------------------------------------------------------||
||*----------------------------------------------------------*||
||------------------------------------------------------------||
||------------------------------------------------------------||
||*-5p3-0--0--0h3/8--8--8--8--10p7-7--7--7--/12--12--12--12--*||
||--5p3-0--0--0h3/8--8--8--8--10p7-7--7--7--/12--12--12--12---||


Riff D (1:36)   ____________4x ______________
               |1,2,3         |4             |
||-------------|--------------|--------------||
||*------6-----|---6----5----*|---6----------||
||-------7-----|-7---7--6-----|-7---7--3-----||
||-------7-----|--------------|--------------||
||*-0----------|-------------*|--------1-----||
||--0----------|--------------|--------------||


Riff C (1:50)
||------------------------------------------------------------||
||*----------------------------------------------------------*||
||------------------------------------------------------------||
||------------------------------------------------------------||
||*-5p3-0--0--0h3/8--8--8--8--10p7-7--7--7--/12--12--12--12--*||
||--5p3-0--0--0h3/8--8--8--8--10p7-7--7--7--/12--12--12--12---||


Riff D (2:05)   ____________4x ______________
               |1,2,3         |4             |
||-------------|--------------|--------------||
||*------6-----|---6----5----*|---6----------||
||-------7-----|-7---7--6-----|-7---7--3-----||
||-------7-----|--------------|--------------||
||*-0----------|-------------*|--------1-----||
||--0----------|--------------|--------------||


Riff A (2:20)
||-------------------------------------------------------||
||*-----------------------------------------------------*||
||-------------------------------------------------------||
||----------------------------------------------6--------||
||*-0--0--0--0--1h3-0--0--0--3p1-0--0--0--4--4----8-9-8-*||
||--0--0--0--0--1h3-0--0--0--3p1-0--0--0-----------------||


Riff B (2:35)
||----------------------------------------------------------------------------||
||----------------------------------------------------------------------------||
||-7------6--3------6--7------6--3----6-----7------6--3------6--2-------------||
||----------------------------------------------------------------------------||
||-5------4--1------4--5------4--1----4-----5------4--1------4--0-------------||
||----------------------------------------------------------------------------||


Riff C (2:49)                                               4x
||------------------------------------------------------------||
||*----------------------------------------------------------*||
||------------------------------------------------------------||
||------------------------------------------------------------||
||*-5p3-0--0--0h3/8--8--8--8--10p7-7--7--7--/12--12--12--12--*||
||--5p3-0--0--0h3/8--8--8--8--10p7-7--7--7--/12--12--12--12---||


Riff D (3:19)   ____________4x ______________
               |1,2,3         |4             |
||-------------|--------------|--------------||
||*------6-----|---6----5----*|---6----------||
||-------7-----|-7---7--6-----|-7---7--3-----||
||-------7-----|--------------|--------------||
||*-0----------|-------------*|--------1-----||
||--0----------|--------------|--------------||

Play Riff D three more times to make up the outro.


Not sure if I'll ever finish the Guitar Pro tab for this song. So
here is the text tab, just in case I don't ever finish the gp tab.
Добавлено: 23.10.2013
Вам также может быть интересно:
Другие материалы по этой песне:
  • Аккорды и текст

Страница создана 23.10.2013
http://primanota.ru/trap-them/day-thirty-six-scars-align-chords.htm
Привет, Гость.
Предлагаем пройти революционный курс по гитаре.
Подарок от PrimaNota.Ru, забирай!