PrimaNota.ru - самый крупный в мире бесплатный архив песенных текстов, аккордов, табулатур и нот


Trap Them - Day Nineteen Fucking Viva - таба, видео

Регистрация Запомнить меня
Войти через:  Facebook Google Twitter Vk Yandex Mail.ru

Trap Them - Day Nineteen Fucking Viva - таба, видео

Печатать
Просмотров: 122
Trap Them - Day Nineteen: Fucking Viva

Tuning is Drop C -CGCFAD

Main riff 8x
---------------------------------------|
---------------------------------------|
---------------------------------------|
---------------------------------------|
-----------------------------5-5-5-4---|
--4---1-3-0-0---6-7-6-3-0-0------------|

------------------------------------|
------------------------------------|
------------------------------------|
------------------------------------|
--------------------------2-1---2---|
--4---1-3-0-0---6-7-6-3-5-----5-----|

Bridge 2x
------------------------------------|
------------------------------------|
------------------------------------|
------------------------------------|
----2-1---2---------2-1---2-1-------|
--5-----5---------5-----5-----4-----|


Final riff
-------------------------------------|
-------------------------------------|
--------------2-2-2------------------|
--4--1-3-0-0--------3-0--------------|
--4--1-3-0-0---------------5-5-5-4---|
--4--1-3-0-0------------0------------|

-------------------------------------|
-------------------------------------|
--------------2-2-2------------------|
--4--1-3-0-0--------3----------------|
--4--1-3-0-0-------------2-1---2-----|
--4--1-3-0-0-----------5-----5-------|
Добавлено: 11.05.2012
Другие материалы по этой песне:

Страница создана 11.05.2012
http://primanota.ru/trap-them/day-nineteen-fucking-viva-chords.htm
Привет, Гость.
Предлагаем пройти революционный курс по гитаре.
Подарок от PrimaNota.Ru, забирай!