PrimaNota.ru - самый крупный в мире бесплатный архив песенных текстов, аккордов, табулатур и нот


Tranzic Bilyeu - Bitter Truth - таба

Регистрация Запомнить меня
Войти через:  Facebook Google Twitter Vk Yandex Mail.ru

Tranzic Bilyeu - Bitter Truth - таба

Печатать
Просмотров: 51
Bitter Truth
(J. Heilman)

Copyright 2002 Electrified Publishing
Performed by: tranzic BILYEU (http://www.geocities.com/tranzicbilyeu/)

This is the tabs of the first single from the up-and-coming rock band from
Central Florida, tranzic BILYEU!  Listen for the single soon on the website
above!

Tune guitar down 1/2 step (E-Flat Tuning)

  INTRO
e |----------------------------------------------------------|
B |----------------------------------------------------------|
G |----------------------------------------------------------| Repeat Twice
D |--7--7-7-5--5-5-8-8-7---x-x-----7--7-7-5--5-5-8-8-7---x-x-|
A |--7--7-7-5--5-5-8-8-7---x-x-----7--7-7-5--5-5-8-8-7---x-x-|
E |--5--5-5-3--3-3-6-6-5---x-x-----5--5-5-3--3-3-6-6-5---x-x-| 

  VERSES Part A
e |----------------------------------------------------------|
B |----------------------------------------------------------|
G |----------------------------------------------------------| Repeat Throughout
D |--7--7-7-5--5-5-8-8-7---x-x-----7--7-7-5--5-5-8-8-7---x-x-| Verses Part A
A |--7--7-7-5--5-5-8-8-7---x-x-----7--7-7-5--5-5-8-8-7---x-x-|
E |--5--5-5-3--3-3-6-6-5---x-x-----5--5-5-3--3-3-6-6-5---x-x-|
 V1A The road has come to an end   Time for another one to begin
     Can't help but to think why?  That true happiness can be mine
 V2A Why does love have to hurt so much  Feelings gone so out of touch
     I look to the stars for the answers  I can hear the truth no kind words
 V3A When will the hurt fade away  It's contained inside me all the day
     For now I can only dream it's true  Leaving the lust behind for a few

  VERSES Part B
e |---------------------------------------------------------|
B |---------------------------------------------------------|
G |---------------------------------------------------------|
D |--5-5-5-555-5-5-7-7-7-777-7-7-5-5-5-555-5-5-7-7\2-2-2-2--|
A |--5-5-5-555-5-5-7-7-7-777-7-7-5-5-5-555-5-5-7-7\2-2-2-2--|
E |--3-3-3-333-3-3-5-5-5-555-5-5-3-3-3-333-3-3-5-5\0-0-0-0--|
           pm.           pm.           pm.
 V1B I can't seem to win this time  Could this be some kind of sign
 V2B Was it something I said to you I cared and I thought you know
 V3B In time I only hope you can see  That the one you want will be me

  CHORUS
e |---------------------------------------------------------------------|
B |---------------------------------------------------------------------|
G |--5-5-5-5-----------7-7-7-----------5-5-5-5-----------7-7-7----------|
D |--5-5-5-5--5-5-5-5--7-7-7--3--3-3---5-5-5-5--5-5-5-5--7-7-7--3--3-3--|
A |--3-3-3-3--5-5-5-5--5-5-5--3--3-3---3-3-3-3--5-5-5-5--5-5-5--3--3-3--|
E |-----------3-3-3-3---------1--1-1------------3-3-3-3---------1--1-1--|

e |---------------------------------------------------------------------|
B |---------------------------------------------------------------------|
G |--5-5-5-5-----------7-7-7-----------5-5-5-5--------------------------|
D |--5-5-5-5--5-5-5-5--7-7-7--3--3-3---5-5-5-5--5-5-5-5--2-2-2----3-----|
A |--3-3-3-3--5-5-5-5--5-5-5--3--3-3---3-3-3-3--5-5-5-5--2-2-2----3-----|
E |-----------3-3-3-3---------1--1-1------------3-3-3-3--0-0-0----1-----|

  When I close my eyes I see you  Thinking about the s**t that we've been through
  It doesn't matter how hard I try  Sometimes I feel like I could cry

  PART ORDER
  Verse 1A
  Verse 1B
  Chorus
  Verse 2A
  Verse 2B
  Chorus
  Verse 3A
  Verse 3B
  Chorus 
  Chorus

  tranzscribed by: Bilyeu (tranzicbilyeu@yahoo.com)

  Check out for tranzic BILYEU's debut album, due out in 2004!

     
Добавлено: 11.08.2013
Другие материалы по этой песне:
  • Аккорды и текст

Страница создана 11.08.2013
http://primanota.ru/tranzic-bilyeu/bitter-truth-chords.htm
Привет, Гость.
Предлагаем пройти революционный курс по гитаре.
Подарок от PrimaNota.Ru, забирай!