PrimaNota.ru - самый крупный в мире бесплатный архив песенных текстов, аккордов, табулатур и нот


Transplants - Dj Dj - аккорды и текст, таба, бас-таба, видео

Регистрация Запомнить меня
Войти через:  Facebook Google Twitter Vk Yandex Mail.ru

Transplants - Dj Dj - аккорды и текст, таба, бас-таба, видео

Печатать
Просмотров: 210
Уроки эстрадного вокала в Санкт-Петербурге
Dj Dj
Transplants
Im lazy so watch out if this sucks.
The bass pretty much does the same thing as the guitar^Å

Track 3- DJ DJ

INTRO

|-----------------------------------------|
|-----------------------------------------|
|-----------------------------------------|
|-9---------9---------9---------9---------|
|-7-----5-6-7-----5-6-7-----5-6-76767676--|   x2
|-0---7---0-0---7-0-0-0---7-0-0-0---------|

VERSE

|-7-7---5-5---7-7---5-5---|
|-9-9---5-5---7-7---5-5---|
|-9-9---6-6^×--8-8---6-6---|
|-9-9---7-7---9-9---7-7---|
|-7-7---7-7---9-9---7-7---|
|-------5-5---7-7---5-5---| 4x

CHORUS

|-------------------------|
|-------------------------|
|-9-----------------------| x4
|-9---------9-7-----------|
|-7---------9-7-----------|
|-----------7-5-----------|

It pretty much goes in this order, but sometimes the verse goes 8 times 
instead of 4. the solo goes over the verse later in the song, ill figure 
that out later.

Instant message me on AIM: voodoochild666
If u have question or wanna talk.
     
Добавлено: 16.11.2013
Другие материалы по этой песне:

Страница создана 19.03.2012
http://primanota.ru/transplants/dj-dj-chords.htm
Привет, Гость.
Предлагаем пройти революционный курс по гитаре.
Подарок от PrimaNota.Ru, забирай!