PrimaNota.ru - самый крупный в мире бесплатный архив песенных текстов, аккордов, табулатур и нот


Transit - So Long So Long - аккорды и текст, видео

Регистрация Запомнить меня
Войти через:  Facebook Google Twitter Vk Yandex Mail.ru

Transit - So Long So Long - аккорды и текст, видео

Печатать
Просмотров: 81
So Long So Long
Transit
tabbed by: Nicole S.

NO CAPO

 sorry if it's a little off..

VERSE 1:

      can you tell me...          check to see...
e|------------0-------------------0----------------------------------|
B|------------0-------------------0----------------------------------|
G|------------9-------------------9----------------------------------|
D|------------9-------------------9----------------------------------|
A|------------7-------------------6----------------------------------|
E|------------0-------------------0----------------------------------|


          blocking out the bad parts,   dodging all the long shots...
e|--------0----------------------------0---------------------0----------|
B|--------0----------------------------0---------------------0----------|
G|--------6----------------------------4---------------------2----------|
D|--------6----------------------------4---------------------2----------|
A|--------4----------------------------2---------------------0----------|
E|--------0----------------------------0---------------------0----------|

PRE-CHORUS:

     so long so long, to the silver...   so long so long, to feeling...
e|---0-----------------------------------0---------------------------------|
B|---0-----------------------------------0---------------------------------|
G|---1-----------------------------------4---------------------------------|
D|---2-----------------------------------4---------------------------------|
A|---2-----------------------------------2---------------------------------|
E|---0-----------------------------------0---------------------------------|


     low like the lights...   the stars in your eyes have set me free
e|---0----------------------------0--------------------------------------|
B|---0----------------------------0--------------------------------------|
G|---6----------------------------2--------------------------------------|
D|---6----------------------------2--------------------------------------|
A|---4----------------------------0--------------------------------------|
E|---0----------------------------0--------------------------------------|

     so long so long, to the silver...   so long so long, to feeling...
e|---0-----------------------------------0---------------------------------|
B|---0-----------------------------------0---------------------------------|
G|---1-----------------------------------4---------------------------------|
D|---2-----------------------------------4---------------------------------|
A|---2-----------------------------------2---------------------------------|
E|---0-----------------------------------0---------------------------------|


     hands wave goodbye...   our names up in lights above the marquee
e|---0----------------------------0--------------------------------------|
B|---0----------------------------0--------------------------------------|
G|---6----------------------------2--------------------------------------|
D|---6----------------------------2--------------------------------------|
A|---4----------------------------0--------------------------------------|
E|---0----------------------------0--------------------------------------|


CHORUS:

     sweep...  In the right... take me... I'll be...runaway, runaway, runaway 
e|---0~---------0--------------0------------0----------------0-----|
B|---0~---------0--------------0------------0----------------0-----|
G|---1~---------4--------------6------------2----------------4-----|
D|---2~---------4--------------6------------2----------------4-----|
A|---2~---------2--------------4------------0----------------2-----|
E|---0~---------0--------------0------------0----------------0-----|


     sweep...  hands on your.. take me... I'll be...runaway, runaway, runaway 
e|---0~---------0--------------0------------0----------------0-----|
B|---0~---------0--------------0------------0----------------0-----|
G|---1~---------4--------------6------------2----------------4-----|
D|---2~---------4--------------6------------2----------------4-----|
A|---2~---------2--------------4------------0----------------2-----|
E|---0~---------0--------------0------------0----------------0-----|

VERSE 2:

     let's take a walk...      Thoughts keep getting lost now...
e|---------0-------------------0----------------------------------|
B|---------0-------------------0----------------------------------|
G|---------9-------------------9----------------------------------|
D|---------9-------------------9----------------------------------|
A|---------7-------------------6----------------------------------|
E|---------0-------------------0----------------------------------|


          looking for a head start,   banking on a sure shot...
e|--------0----------------------------0----------------0----------|
B|--------0----------------------------0----------------0----------|
G|--------6----------------------------4----------------2----------|
D|--------6----------------------------4----------------2----------|
A|--------4----------------------------2----------------0----------|
E|--------0----------------------------0----------------0----------|

PRE-CHORUS:

     so long so long, to the silver...   so long so long, to feeling...
e|---0-----------------------------------0---------------------------------|
B|---0-----------------------------------0---------------------------------|
G|---1-----------------------------------4---------------------------------|
D|---2-----------------------------------4---------------------------------|
A|---2-----------------------------------2---------------------------------|
E|---0-----------------------------------0---------------------------------|


     low like the lights...   the stars in your eyes have set me free
e|---0----------------------------0--------------------------------------|
B|---0----------------------------0--------------------------------------|
G|---6----------------------------2--------------------------------------|
D|---6----------------------------2--------------------------------------|
A|---4----------------------------0--------------------------------------|
E|---0----------------------------0--------------------------------------|

     so long so long, to the silver...   so long so long, to feeling...
e|---0-----------------------------------0---------------------------------|
B|---0-----------------------------------0---------------------------------|
G|---1-----------------------------------4---------------------------------|
D|---2-----------------------------------4---------------------------------|
A|---2-----------------------------------2---------------------------------|
E|---0-----------------------------------0---------------------------------|


     hands wave goodbye...   our names up in lights above the marquee
e|---0----------------------------0--------------------------------------|
B|---0----------------------------0--------------------------------------|
G|---6----------------------------2--------------------------------------|
D|---6----------------------------2--------------------------------------|
A|---4----------------------------0--------------------------------------|
E|---0----------------------------0--------------------------------------|

CHORUS:

    sweep...  In the right... take me... I'll be...runaway, runaway, runaway 
e|---0~---------0--------------0------------0----------------0-----|
B|---0~---------0--------------0------------0----------------0-----|
G|---1~---------4--------------6------------2----------------4-----|
D|---2~---------4--------------6------------2----------------4-----|
A|---2~---------2--------------4------------0----------------2-----|
E|---0~---------0--------------0------------0----------------0-----|


     sweep...  hands on your.. take me... I'll be...runaway, runaway, runaway 
e|---0~---------0--------------0------------0----------------0-----|
B|---0~---------0--------------0------------0----------------0-----|
G|---1~---------4--------------6------------2----------------4-----|
D|---2~---------4--------------6------------2----------------4-----|
A|---2~---------2--------------4------------0----------------2-----|
E|---0~---------0--------------0------------0----------------0-----|

BRIDGE

e|---0----------0--|
B|---0----------0--|
G|---1----------4--|
D|---2----------4--|
A|---2----------2--|
E|---0----------0--|

     want me... want me...   want me..      want me...      
e|---0----------0--------------0------------0----------------------|
B|---0----------0--------------0------------0----------------------|
G|---1----------4--------------6------------2----------------------|
D|---2----------4--------------6------------2----------------------|
A|---2----------2--------------4------------0----------------------|
E|---0----------0--------------0------------0----------------------|



     want me, do you want out, do you want out, do you want out      
e|---0--------------------------------0--------------------|
B|---0--------------------------------0--------------------|
G|---1--------------------------------2--------------------|
D|---2--------------------------------2--------------------|
A|---2--------------------------------0--------------------|
E|---0--------------------------------0--------------------|

     so long so long, to the silver...   so long so long, to feeling...
e|---0-----------------------------------0---------------------------------|
B|---0-----------------------------------0---------------------------------|
G|---1-----------------------------------4---------------------------------|
D|---2-----------------------------------4---------------------------------|
A|---2-----------------------------------2---------------------------------|
E|---0-----------------------------------0---------------------------------|


     low like the lights...   the stars in your eyes have set me free
e|---0----------------------------0--------------------------------------|
B|---0----------------------------0--------------------------------------|
G|---6----------------------------2--------------------------------------|
D|---6----------------------------2--------------------------------------|
A|---4----------------------------0--------------------------------------|
E|---0----------------------------0--------------------------------------|

     so long so long, to the silver...   so long so long, to feeling...
e|---0-----------------------------------0---------------------------------|
B|---0-----------------------------------0---------------------------------|
G|---1-----------------------------------4---------------------------------|
D|---2-----------------------------------4---------------------------------|
A|---2-----------------------------------2---------------------------------|
E|---0-----------------------------------0---------------------------------|


     hands wave goodbye...   our names up in lights above the marquee
e|---0----------------------------0--------------------------------------|
B|---0----------------------------0--------------------------------------|
G|---6----------------------------2--------------------------------------|
D|---6----------------------------2--------------------------------------|
A|---4----------------------------0--------------------------------------|
E|---0----------------------------0--------------------------------------|

CHORUS:

    sweep...  In the right... take me... I'll be...runaway, runaway, runaway 
e|---0~---------0--------------0------------0----------------0-----|
B|---0~---------0--------------0------------0----------------0-----|
G|---1~---------4--------------6------------2----------------4-----|
D|---2~---------4--------------6------------2----------------4-----|
A|---2~---------2--------------4------------0----------------2-----|
E|---0~---------0--------------0------------0----------------0-----|

    sweep...  In the right... take me... I'll be...runaway, runaway, runaway 
e|---0~---------0--------------0------------0----------------0-----|
B|---0~---------0--------------0------------0----------------0-----|
G|---1~---------4--------------6------------2----------------4-----|
D|---2~---------4--------------6------------2----------------4-----|
A|---2~---------2--------------4------------0----------------2-----|
E|---0~---------0--------------0------------0----------------0-----|

     sweep...  hands on your.. take me... I'll be...runaway, runaway, runaway 
e|---0~---------0--------------0------------0----------------0-----|
B|---0~---------0--------------0------------0----------------0-----|
G|---1~---------4--------------6------------2----------------4-----|
D|---2~---------4--------------6------------2----------------4-----|
A|---2~---------2--------------4------------0----------------2-----|
E|---0~---------0--------------0------------0----------------0-----|
Добавлено: 05.09.2013
Другие материалы по этой песне:
  • Аккорды и текст

Страница создана 05.09.2013
http://primanota.ru/transit/so-long-so-long-chords.htm
Привет, Гость.
Предлагаем пройти революционный курс по гитаре.
Подарок от PrimaNota.Ru, забирай!