PrimaNota.ru - самый крупный в мире бесплатный архив песенных текстов, аккордов, табулатур и нот


Trans-siberian Orchestra - Winter Palace - таба, видео

Регистрация Запомнить меня
Войти через:  Facebook Google Twitter Vk Yandex Mail.ru

Trans-siberian Orchestra - Winter Palace - таба, видео

Печатать
Просмотров: 51
Авторы музыки: Paul O’Neill
Авторы текста: Paul O’Neill
Winter Palace
By Trans-Siberian Orchestra
Standard Tuning
0:57
E----------------------------------------------------------------------------|
B----------------------------------------------------------------------------|
G---7---5---3----------------------------------------------------------------|
D---7---5---3---7-5-----5----------------------------------------------------|
A---5---3---1---7-5-3-3-5----------------------------------------------------|
E---------------5-3-0-0-3----------------------------------------------------|
   1:16             ***
E----------------------------------------------------------------------------|
B----------------------------------------------------------------------------|
G----------------------------------------------------------------------------|
D---7---5---3---5---3---5----------------------------------------------------|
A---7---5---3---5---3---5----------------------------------------------------|
E---5---3---1---3---1---3----------------------------------------------------|


1:23
Lead Riff 
E----------------------------------------------------------------------------|
B--------------2h3p2-5-3p2---------------------------------------------------|
G---------2-4---------------4-2----------------------------------------------|
D---1-2-4-----------------------4-3-2----------------------------------------|
A--------------------------------------3-------------------------------------|
E----------------------------------------------------------------------------|

E----------------------------------------------------------------------------|
B-------------2h3p2-5-3p2----------------------------------------------------|
G---------2-4--------------4-2-----------------------------------------------|
D---1-2-4-----------------------4-3-2----------------------------------------|
A-------------------------------------3--------------------------------------|
E----------------------------------------------------------------------------|

E----------------------------------------------------------------------------|
B-------------2h3p2-5-3p2----------------------------------------------------|
G---------2-4-------------4-2------------------------------------------------|
D---1-2-4----------------------4-3-2-----------------------------------------|
A------------------------------------3---------------------------------------|
E----------------------------------------------------------------------------|

E----------------------------------------------------------------------------|
B-------------2h3p2-5-3p2----------------------------------------------------|
G---------2-4--------------4-2-----------------------------------------------|
D---1-2-4----------------------4-3-2-----------------------------------------|
A-------------------------------------3--------------------------------------|
E----------------------------------------------------------------------------|

E----------------------------------------------------------------------------|
B-------------2h3p2----------------------------------------------------------|
G---------2-4-----------2----------------------------------------------------|
D---1-2-4---------------2----------------------------------------------------|
A--------------------3--0----------------------------------------------------|
E----------------------------------------------------------------------------|

E----------------------------------------------------------------------------|
B----------------------------------------------------------------------------|
G---7------------------------------------------------------------------------|
D---7---7---7---5---3---6---5---3---3----------------------------------------|
A---5---7---7---5---3---6---5---3---3----------------------------------------|
E-------5---5---3---1---4---3---1---1----------------------------------------|
2:03
E----------------------------------------------------------------------------|
B----------------------------------------------------------------------------|
G----------------------------------------------------------------------------|
D---3-3-3-3-3-3-3-3-3-3-3-3-5-5-5-5-5-5-5-5-5-5-5-5--------------------------|
A---3-3-3-3-3-3-3-3-3-3-3-3-5-5-5-5-5-5-5-5-5-5-5-5--------------------------|
E---1-1-1-1-1-1-1-1-1-1-1-1-3-3-3-3-3-3-3-3-3-3-3-3--------------------------|
    ***********************************************
E----------------------------------------------------------------------------|
B----------------------------------------------------------------------------|
G----------------------------------------------------------------------------|
D---7-7-7-7-7-7-7-7-7-7-7-7-7-7-7-7-7-7-7-7-7-7-7-7--------------------------|
A---7-7-7-7-7-7-7-7-7-7-7-7-7-7-7-7-7-7-7-7-7-7-7-7--------------------------|
E---6-6-6-6-6-6-6-6-6-6-6-6-5-5-5-5-5-5-5-5-5-5-5-5--------------------------|
    ***********************************************
E----------------------------------------------------------------------------|
B----------------------------------------------------------------------------|
G----------------------------------------------------------------------------|
D---6-6-6-6-6-6-6-6-6-6-6-6-6-5-5-5-5-5-5-5-5-5-5-5-5------------------------|
A---6-6-6-6-6-6-6-6-6-6-6-6-6-5-5-5-5-5-5-5-5-5-5-5-5------------------------|
E---4-4-4-4-4-4-4-4-4-4-4-4-4-3-3-3-3-3-3-3-3-3-3-3-3------------------------|
    *************************************************
E---------------------------------------------------------------------------|
B---------------------------------------------------------------------------|
G---------------------------------------------------------------------------|
D---3-3-3-3-3-3-3-3-3-3-3-3-3-5-5-5-5-5-5-5-5-5-5-5-5-----------------------|
A---3-3-3-3-3-3-3-3-3-3-3-3-3-5-5-5-5-5-5-5-5-5-5-5-5-----------------------|
E---1-1-1-1-1-1-1-1-1-1-1-1-1-3-3-3-3-3-3-3-3-3-3-3-3-----------------------|
    *************************************************
E----------------------------------------------------------------------------|
B----------------------------------------------------------------------------|
G----------------------------------------------------------------------------|
D---7-7-7-7-7-7-7-7-7-7-7-7-9-9-9-9-9-9-9-9-9-9-9-9--------------------------|
A---7-7-7-7-7-7-7-7-7-7-7-7-9-9-9-9-9-9-9-9-9-9-9-9--------------------------|
E---5-5-5-5-5-5-5-5-5-5-5-5-7-7-7-7-7-7-7-7-7-7-7-7--------------------------|
    ***********************************************
E----------------------------------------------------------------------------|
B----------------------------------------------------------------------------|
G----------------------------------------------------------------------------|
D---7-7-7-7-7-7-7-7-7-7-7-7-5-5-5-5-5-5-5-5-5-5-5-5--------------------------|
A---7-7-7-7-7-7-7-7-7-7-7-7-5-5-5-5-5-5-5-5-5-5-5-5--------------------------|
E---5-5-5-5-5-5-5-5-5-5-5-5-3-3-3-3-3-3-3-3-3-3-3-3--------------------------|
    ***********************************************
E----------------------------------------------------------------------------|
B----------------------------------------------------------------------------|
G----------------------------------------------------------------------------|
D---3-3-3-3-3-3-3-3-3-3-3-3-5-5-5-5-5-5-5-5-5-5-5-5--------------------------|
A---3-3-3-3-3-3-3-3-3-3-3-3-5-5-5-5-5-5-5-5-5-5-5-5--------------------------|
E---1-1-1-1-1-1-1-1-1-1-1-1-3-3-3-3-3-3-3-3-3-3-3-3--------------------------|
    ***********************************************
E----------------------------------------------------------------------------|
B----------------------------------------------------------------------------|
G----------------------------------------------------------------------------|
D---7-7-7-7-7-7-7-7-7-7-7-5-5-5-5-5-5-5-5-5-5-5-5----------------------------|
A---7-7-7-7-7-7-7-7-7-7-7-5-5-5-5-5-5-5-5-5-5-5-5----------------------------|
E---5-5-5-5-5-5-5-5-5-5-5-3-3-3-3-3-3-3-3-3-3-3-3----------------------------|
    *********************************************
E----------------------------------------------------------------------------|
B----------------------------------------------------------------------------|
G----------------------------------------------------------------------------|
D---3-3-3-3-3-3-3-3-3-3-3-3-5-5-5-5-5-5-5-5-5-5-5----------------------------|
A---3-3-3-3-3-3-3-3-3-3-3-3-5-5-5-5-5-5-5-5-5-5-5----------------------------|
E---1-1-1-1-1-1-1-1-1-1-1-1-3-3-3-3-3-3-3-3-3-3-3----------------------------|
    *********************************************
E----------------------------------------------------------------------------|
B----------------------------------------------------------------------------|
G----------------------------------------------------------------------------|
D---7-7-7-7-7-7-7-7-7-7-7-7-5-5-5-5-5-5-5-5-5-5-5----------------------------|
A---7-7-7-7-7-7-7-7-7-7-7-7-5-5-5-5-5-5-5-5-5-5-5----------------------------|
E---5-5-5-5-5-5-5-5-5-5-5-5-3-3-3-3-3-3-3-3-3-3-3----------------------------|
    *********************************************
E--------------------------------------------------------------------------|
B--------------------------------------------------------------------------|
G--------------------------------------------------------------------------|
D---3-3-3-3-9-9-9-9-9-7-7-7-7-7-5-5-5-5-5-5/8-8-8-8-8-6-6-6-6--------------|
A---3-3-3-3-9-9-9-9-9-7-7-7-7-7-5-5-5-5-5-5/8-8-8-8-8-6-6-6-6--------------|
E---1-1-1-1-7-7-7-7-7-5-5-5-5-5-3-3-3-3-3-3/6-6-6-6-6-4-4-4-4--------------|
    *********************************************************
E----------------------------------------------------------------------------|
B----------------------------------------------------------------------------|
G----------------------------------------------------------------------------|
D---3-3-3-3-8-8-8-8-8-5-5-5-5-5-9-9-9-9-9-7-7-7-7-5-5-5-5-5------------------|
A---3-3-3-3-8-8-8-8-8-5-5-5-5-5-9-9-9-9-9-7-7-7-7-5-5-5-5-5------------------|
E---1-1-1-1-6-6-6-6-6-3-3-3-3-3-7-7-7-7-7-5-5-5-5-3-3-3-3-3------------------|
    *******************************************************
3:03 Played rather fast
E---------------------------------------------------------------------------|
B---------------------------------------------------------------------------|
G---------------------------------------------------------------------------|
D---9-9-9-9-9-7-7-7-7-7-5-5-5-5-5-3-3-3-3-3-9-9-9-9-9-----------------------|
A---9-9-9-9-9-7-7-7-7-7-5-5-5-5-5-3-3-3-3-3-9-9-9-9-9-----------------------|
E---7-7-7-7-7-5-5-5-5-5-3-3-3-3-3-1-1-1-1-1-7-7-7-7-7-----------------------|
      *****     *****     *****     *****     *****
E---------------------------------------------------------------------------|
B---------------------------------------------------------------------------|
G---------------------------------------------------------------------------|
D---7-7-7-7-7-5-5-5-5-3-3-3-3-9-9-9-9-7-7-7-7-5-5-5-5-3-3-3-3---------------|
A---7-7-7-7-7-5-5-5-5-3-3-3-3-9-9-9-9-7-7-7-7-5-5-5-5-3-3-3-3---------------|
E---5-5-5-5-5-3-3-3-3-1-1-1-1-7-7-7-7-5-5-5-5-3-3-3-3-1-1-1-1---------------|
      *****     ***     ***     ***     ***     ***     ***
E----------------------------------------------------------------------------|
B----------------------------------------------------------------------------|
G----------------------------------------------------------------------------|
D---9-9-9-9-7-7-7-7-5-5-5-5/5-5-5-5-3-3-3-3/7-7-7-7/6------------------------|
A---9-9-9-9-7-7-7-7-5-5-5-5/5-5-5-5-3-3-3-3/7-7-7-7/6------------------------|
E---7-7-7-7-5-5-5-5-3-3-3-3/3-3-3-3-1-1-1-1/5-5-5-5/4------------------------|
      ***     ***     ***     ***     ***     ***
E---------------------------------------------------------------------------|
B---------------------------------------------------------------------------|
G---------------------------------------------------------------------------|
D---5-3/8-7-5-9-5-----------------------------------------------------------|
A---5-3/8-7-5-9-5-----------------------------------------------------------|
E---3-1/6-5-3-7-3-----------------------------------------------------------|

E----------------------------------------------------------------------------|
B----------------------------------------------------------------------------|
G----------------------------------------------------------------------------|
D---3-2-3-2-3-----------------------------------------------------------------|
A---3-2-3-2-3----------------------------------------------------------------|
E---1-0-1-0-1-----------------------------------------------------------------|
End
Tab Key
h=Hammer on
p=Pull Off
/=Slide
*=Palm Mute
Well that should just about do it for this song. It's a pretty cool song. Rock on TSO fans I hope you
enjoy this. Let me know if I made a small mistake here or there. But it sounds pretty good.
Добавлено: 17.10.2014
Другие материалы по этой песне:
  • Аккорды и текст

Страница создана 17.10.2014
http://primanota.ru/trans-siberian-orchestra/winter-palace-chords.htm
Привет, Гость.
Предлагаем пройти революционный курс по гитаре.
Подарок от PrimaNota.Ru, забирай!