PrimaNota.ru - самый крупный в мире бесплатный архив песенных текстов, аккордов, табулатур и нот


Trans Siberian Orchestra - Wish Liszt Toy Shop Madness - таба, видео

Регистрация Запомнить меня
Войти через:  Facebook Google Twitter Vk Yandex Mail.ru

Trans Siberian Orchestra - Wish Liszt Toy Shop Madness - таба, видео

Печатать
Просмотров: 68
Wish Liszt(Toy Shop Madness) number 16 on The Lost Christmas Eve, this is a really neat 
and I've had a few requests for it, so here it is.

(Standard Tune)
(.15)
E------------------|
B------------------|
G-7-7-----7-7------|  (x2)
D-7-7-5-5-7-7-5-5--|
A-5-5-5-5-5-5-5-5--|
E-----3-3-----3—3--|

(over chords)
(.31)
E-21b22-21b22-21b22-21b22-21b22-21b22-20-18-------------------------|
B-------------------------------------------22-20-18----------------|
G----------------------------------------------------20-19-17-17b19-|
D-------------------------------------------------------------------|
A-------------------------------------------------------------------|
E-------------------------------------------------------------------|
(Repeats once)
(.46)
E-----------------------------------------|
B-----------------------------------------|
G-----------------------------------------|
D-----------------------------------------|
A-5-3-5-5-5-5---5-5-5-5-3-5-5-5-5---5-5-5-|
E-------------6-------------------6-------|
  ***************************************
(.54)
E-------------------------------------------------|
B-------------------------------------------------|
G-------------------------------------------------|
D-------------------------------------------------|
A-5-3-5-5-3-5-5---5-5---5-5-3-5-5-3-5-5---5-5---5-|
E---------------6-----6-----------------6-----6---|
  ***********************************************
(1.02)
E---------|
B---------|
G-7-7-----|  Repeats a few times
D-7-7-5-5-|
A-5-5-5-5-|
E-----3-3-|
Background over this comes in (1.10)
E---------------|
B---------------|
G---------------|
D---------------|
A-5(x16)--------|
E--------3(x16--|
  ************
Just follow the chords
(1.25)
E-------------------------------|
B-------------------------------|
G-9-5-0-5-0-0-9-12-7-4-------7--|
D----------------------5-5-5----|   (x2)
A-------------------------------|
E-------------------------------|
(1.40)
E-------------------------|
B-------------------------|
G-----4-2-----------------|
D-0-4-----5-4-3-2---------|
A-----------------6-5-4-5-|
E-------------------------|
Towards the end they play all the notes with harmonics
(1.48)
E------------------------|
B------------------------|
G-----4-2----------------|
D-0-4-----5-4-2-0--------|5><5>
A------------------------|
E------------------------|
(2.07)
E----------------------------------|
B----------------------------------|
G---------------------4-5-7-6-7-4--|
D-----4-5-7-6-7-4-5-7--------------|  (x4)
A-5-7------------------------------|
E----------------------------------|
  ***************
(2.22)
E---------------------------------|
B---------------------------------|
G-----------------------4-----4-6-|
D-----4-5---4-5-7-4-5-7---5-7-----|
A-5-7-----7-----------------------|
E---------------------------------|
  *******************************
(2.26)
E---------------------------------------5-----5-7---5-7-8-5-7-8-10-|
B---------------5-----5-7---5-7-8-5-7-8---7-8-----8----------------|
G---4-6-7-4-6-7---6-7-----7----------------------------------------|
D-7----------------------------------------------------------------|
A------------------------------------------------------------------|
E------------------------------------------------------------------|
(2.30)
E-------------------------------------------------|
B-------------------------------------------------|
G-------------------------------------------------|
D-------------------------------------------------|
A-3/5-5-5-5-5-5-5-5-5-5-3-3/5-5-5-5-5-5-5-5-5-5-3-|
E-------------------------------------------------|

Very fast run, could be off, but it sounds right
(2.36)
E-17-15-13----17-15-13--------------------------------------------|
B----------17----------17-15-13-----------------------------------|
G-------------------------------15-14-12--------------------------|
D----------------------------------------15-14-12-------------12~-|
A-------------------------------------------------15-13-12--------|
E----------------------------------------------------------15-----|
(2.44)
E------
B-20b22
G-19b21
D------|
A------|
E------|
(2.52)
E----------------------------|
B----------------------------|
G----------------------------|
D----------------------------|
A-12-11-10\8\5---------8-----|5>\
E--------------8-5-3-5-------|
  ********
(3.01)
E----
B----
G----
D-7\2
A-7\2
E----
(They use whammy bar here)
(3.03)
E---------------------------------|
B---------------------------------|
G---------------------4-5-7-6-7-4-|
D-----4-5-7-6-7-4-5-7-------------|
A-5-7-----------------------------|
E---------------------------------|
  ***************
(3.06)
E------------------------------------|
B---5---------------3----------------|
G-5-----5---------4------4-----------|
D-----5-----5----------5------5------|
A---------5-----5-----------5------5-|
E-------------7------------------7---|
  *********************************
(3.10)
E---------------------------------|
B---------------------------------|
G---------------------4-5-7-6-7-4-|
D-----4-5-7-6-7-4-5-7-------------| (x2)
A-5-7-----------------------------|
E---------------------------------|
  **************
(3.18)
E------------------------------------|
B---5---------------3----------------|
G-5-----5---------4------4-----------|
D-----5-----5----------5------5------|
A---------5-----5-----------5------5-|
E-------------7------------------7---|
  **********************************
(3.21)
E------------------------------------------|
B---1--------------------------------------|
G-2-----2-----------4-----5-55-77------7---|
D-----4-----4-----5-----5-5-55-77-55-5-7-5-|
A---------5-----5-----5---3-33-55-55-5-5-5-|
E-------------5-------------------33-3---3-|
  ***********************

-End

*Key*
*=palm mute
b=bend
~=vibro
/\=slides
<5>=artificial harmonic

That is about it, should be about 100% correct, enjoy, this is a really fun song to 
 Comments always welcome
Nsxz0r@gmail.com
Rock on

Upcoming Tabs**
-Wizards in Winter
-Christmas Jam
Добавлено: 22.11.2013
Другие материалы по этой песне:
  • Аккорды и текст

Страница создана 22.11.2013
http://primanota.ru/trans-siberian-orchestra-2/wish-liszt-toy-shop-madness-chords.htm
Привет, Гость.
Предлагаем пройти революционный курс по гитаре.
Подарок от PrimaNota.Ru, забирай!