PrimaNota.ru - самый крупный в мире бесплатный архив песенных текстов, аккордов, табулатур и нот


Trans Siberian Orchestra - Tracers - таба, видео

Регистрация Запомнить меня
Войти через:  Facebook Google Twitter Vk Yandex Mail.ru

Trans Siberian Orchestra - Tracers - таба, видео

Печатать
Просмотров: 59
Авторы музыки: Al Pitrelli, Jane Mangini, Paul O’Neill

This is the last song on TSO's new CD Night Castle probably heard many times at their 
 There are some quick parts I'm sure I have wrong, but this is the general idea of the song.

(Standard tune)
E-----------------------------|
B-----------------------------|
G-----------------------------|   (repeats throughout)
D-----------------------------|
A-0-2222-0-2222-0-2222-0-2222-|
E-----------------------------|

(.15)
E----------------------------------------|
B-17b19-17b18-17-15-15-15-15~\-----------|          < ^
G----------------------------------------|   (these 2 bars repeat)
D----------------------------------------|
A----------------------------------------|
E----------------------------------------|

(.38)
E----------------------------------------------------|
B----------------------------------------------------|
G-11-----9-------14-------12-------16-------14-------|
D---12-----11-------15-------14-------17-------16----|
A-----14------12-------17-------15-------19-------17-|
E----------------------------------------------------|


E--------------------14-----------------------|
B-15-12----17-14--------15--------------------|
G-------12-------14--------16----   (x2 @ .49-|
D-----------------------------16\-------------|
A---------------------------------------------|
E---------------------------------------------|

                (.59)
E-19-19-19-19\---------------------------------|
B----------------------------------------------|
G----------------4-4-xxx-4-4-xxx-4-4-xxx-2-2-2-|
D----------------4-4-xxx-4-4-xxx-4-4-xxx-2-2-2-|  (repeats)
A----------------2-2-xxx-2-2-xxx-2-2-xxx-0-0-0-|
E----------------------------------------------|

(1.08)
E--------------------------|
B-17b19-17-15-14-15p14-----|
G----------------------16--|
D--------------------------|
A--------------------------|
E--------------------------|

(1.16)
E--------------------------------|
B-17b19-17b18-17-15-15-15-15-----|\
G--------------------------------|    (x2)
D--------------------------------|
A--------------------------------|
E--------------------------------|

(1.38)
E---------------------------------------------------|
B---------------------------------------------------|
G-11-----9-------14-------12-------16------14-------|
D---12-----11-------15-------14-------17------16----|
A-----14------12-------17-------15-------19------17-|
E---------------------------------------------------|


E-------------------|
B-15-12----17-14----|
G-------12-------14-|
D-------------------|
A-------------------|
E-------------------|

(1.43)
E----------------------------------|
B-17b19-17-15-17p15p14-------------|
G----------------------16-14-------|
D----------------------------16-14-|
A----------------------------------|
E----------------------------------|

(1.50)
E---------------------------------------------------|
B---------------------------------------------------|
G-11-----9-------14-------12-------16------14-------|
D---12-----11-------15-------14-------17------16----|
A-----14------12-------17-------15-------19------17-|
E---------------------------------------------------|


E-------------------|
B-15-12----17-14----|
G-------12-------14-|
D-------------------|
A-------------------|
E-------------------|


E----------------------------------|
B-17b19-17-15-17p15p14-------------|
G----------------------16-14-------|
D----------------------------16-14-|
A----------------------------------|
E----------------------------------|

(2.05) clean guitar
E--------------------------|
B-----1----0-------1---0---|
G---2--------2---2-------2-|  (repeating throughout)
D-2-----2------2-----2-----|
A--------------------------|
E--------------------------|

(2.21)          (2.38)    (2.46)
E--------------------------------|
B--------------------------------|
G-2-2222------------------2-2222-|
D-2-2222--(x2)--3-3333----2-2222-|
A-0-0000--------3-3333----0-0000-|
E---------------1-1111-----------|
    ****          ****      ****
(2.54)
E-----------------------------------|
B-----------------------------------|
G-5---2222---2222---5---2222---2222-|
D-5---2222---2222---5---2222---2222-|
A-3---0000---0000---3---0000---0000-|
E-----------------------------------|
      ****   ****       ****   ****
(3.28)
E---------------------------|
B---------------------------|
G----9-----7-----5-----4--2-|
D-7--9--5--7--3--5--2--2--2-|
A-7--7--5--5--3--3--2--2--0-|
E-5-----3-----1-----0-------|


E---------------------------------|
B---------------------------------|
G----9-----7-----5-----4----------|
D-7--9--5--7--3--5--2--2--3--3--5-|
A-7--7--5--5--3--3--2--2--3--3--5-|
E-5-----3-----1-----0-----1--1--3-|

(3.46)
E---------------------------|
B---------------------------|
G---------------------------|
D-5-3-2---------------------|
A-------5-3-2-3-2-0-2-0---0-|
E-----------------------3---|
 **************************

(3.56)
E-----------------------------------|
B-----------------------------------|
G-----------------------------------|
D--------------12-14h15p14-12-14-15-|
A-12--12-14-15----------------------|
E---12------------------------------|


E-------------------------------15-13-12-|
B----------------------16----------------|
G-12-14----16----17----------14----------|
D-------14----14----14----14-------------|
A----------------------------------------|
E----------------------------------------|

(4.02)
E-12p10p8--------------------------------|
B---------12p10p8--12p10p8---------------|
G--------------------------10p9p7--------|
D---------------------------------10p9p7-|
A----------------------------------------|
E----------------------------------------|


E-----------------------------------|
B-----------------------------------|
G-----------------------------------|
D--------------12-14h15p14-12-14-15-|
A-12--12-14-15----------------------|
E---12------------------------------|


E-------------------------------15-13-12----------------|
B----------------------16-------------------------------|
G-12-14----16----17----------14---------  (x2 from 3.56-|
D-------14----14----14----14----------------------------|
A-------------------------------------------------------|
E-------------------------------------------------------|

(4.28)
E---------------------------------------------------|
B---------------------------------------------------|
G-11-----9-------14-------12-------16------14-------|
D---12-----11-------15-------14-------17------16----|
A-----14------12-------17-------15-------19------17-|
E---------------------------------------------------|

E-------------------------------------------------------|
B-15-12----17-14----17b19-17-15-17p15p14----------------|
G-------12-------14-------------------------------------|
D---------------------------------------  (x3 from 4.28-|
A-------------------------------------------------------|
E-------------------------------------------------------|

(4.51)
E---------------------------------------------------|
B---------------------------------------------------|
G-11-----9-------14-------12-------16------14-------|
D---12-----11-------15-------14-------17------16----|
A-----14------12-------17-------15-------19------17-|
E---------------------------------------------------|


E-----------------------------------------|
B-15-12----17-14----[12121212]-[14141414--|
G-------12-------14-----------------------|
D-----------------------------------------|
A-----------------------------------------|
E-----------------------------------------|

Brackets = (4x)

E------------[12121212--|
B-[15151515]------------|
G-----------------------|
D-----------------------|
A-----------------------|
E-----------------------|


(5.10)
E----------------------------------------------------|
B----------------------------------------------------|
G----------------------------------------11----11-12-|
D-------------11----11-12-11-12-14-12-14----14-------|
A-12-14-12-14----14----------------------------------|
E----------------------------------------------------|


E-------------------|
B----------------12-|
G-11-12-14-12-14----|
D-------------------|
A-------------------|
E-------------------|


E-------------------------------------------------|
B-------------------------------------------------|
G-------------------------------------11----11-12-|
D----------11----11-12-11-12-14-12-14----14-------|
A-14-12-14----14----------------------------------|
E-------------------------------------------------|


E----------------------------------|
B----------------12--[15-14-13-12--|
G-11-12-14-12-14-------------------|
D----------------------------------|
A----------------------------------|
E----------------------------------|

Brackets = (x4)

E------------------------------------------------------|
B-15-14-13-12--12--12#--12--12p10-12p10-12#-12#-12#-12-|
G------------------------------------------------------|
D------------------------------------------------------|
A------------------------------------------------------|
E------------------------------------------------------|


E---------------------------------------------------|
B-12p10-12p10-12#--12#--12--12#--12--10--12--10--12-|
G---------------------------------------------------|
D---------------------------------------------------|
A---------------------------------------------------|
E---------------------------------------------------|

(5.36) fast outro too hard to tell I gave it a shot

E-------12-14p12----12----------------------------------|
B-14-15----------15----15p14-15p14p12-14p12----12-------|
G-------------------------------------------14----14p12-|
D-------------------------------------------------------|
A-------------------------------------------------------|
E-------------------------------------------------------|

E----------------------------------------12----12-14----|
B----------------12----12-13-14-15-14-15----15-------15-|
G-14p12p11-12h14----14----------------------------------|
D-------------------------------------------------------|
A-------------------------------------------------------|
E-------------------------------------------------------|

E--17--17b19---|\
B--------------|
G--------------|
D--------------|
A--------------|
E--------------|

-End

*Key*
17b19 = Full bend
17b18 = half bend
#     = artificial harmonic
*     = palm mute
x     = dead notes
12h14 = hammer on
14p12 = pull off
[]    = play 4x's
\     = slide down
~     = tremolo


Think that covers it, I know this isn't all accurate, but it's an idea so work with it, 
luck, rock on. Questions or comments always welcome nsxz0r@gmail.com Thanks all, God 
 Coming soon, the rest of the cd's tabs :)
Добавлено: 31.08.2013
Другие материалы по этой песне:
  • Аккорды и текст

Страница создана 31.08.2013
http://primanota.ru/trans-siberian-orchestra-2/tracers-chords.htm
Привет, Гость.
Предлагаем пройти революционный курс по гитаре.
Подарок от PrimaNota.Ru, забирай!