PrimaNota.ru - самый крупный в мире бесплатный архив песенных текстов, аккордов, табулатур и нот


Trans Siberian Orchestra - Toccata - таба, видео

Регистрация Запомнить меня
Войти через:  Facebook Google Twitter Vk Yandex Mail.ru

Trans Siberian Orchestra - Toccata - таба, видео

Печатать
Просмотров: 89
----------------------------------------------------------------------------
                              TOCCATA -  Trans-Siberian Orchestra
----------------------------------------------------------------------------
tabbed by: paul schirmer
email: paulschirmer@yahoo.com

intro
e|----------------|----------------|----------------|----------------|
B|----------------|----------------|----------------|----------------|
G|----------------|----------------|----------------|----------------|
D|--7/5/7----2--3-|--6/7-----------|----------------|----------------|
A|--7/5/7----2--3-|--6/7-----------|----------------|----------------|
E|--5/3/5----0--1-|--4/5-----------|----------------|----------------|

Part 1
e|----------------|
B|----------------|
G|----------------|
D|--8-7-5---------|
A|--------8-7-5-4-|
E|----------------|

e|----------------|----------------|----------------|----------------|
B|----------------|----------------|----------------|----------------|
G|----------------|----------------|----------------|----------------|
D|-------------5--|---5-7---5-7-8-5|-7---5----------|---8-7-5--------|    x3
A|-5-7-8-5-7-8---7|-8-----8--------|---8---7-8-5-7-4|-5-------8-7-5-4|
E|----------------|----------------|----------------|----------------|

e|----------------|----------------|----------------|
B|----------------|----------------|----------------|
G|-7-----7-6-7----|-7-6-7---7-6-7--|-7--------6-----|
D|-7-----7-6-7----|-7-6-7---7-6-7--|-7--------6-----|
A|-5-----5-4-5----|-5-4-5---5-4-5--|-5--------4-----|
E|----------------|----------------|----------------|

Guitar 1:Part II
e|----------------|----------------|----------------|----------------|
B|----------------|----------------|----------------|----------------|
G|-7-----7-7-7-7--|-7-----7-7-7-7--|-7-----7-7-7-7--|----------------|
D|-7-----7-7-7-7--|-7-----7-7-7-7--|-7-----7-7-7-7--|-8-7------------|
A|-5-----5-8-5-5--|-5-----5-8-5-5--|-5-----5-8-5-5--|-8-7------------|
E|----------------|----------------|----------------|-6-5------------|
1st time:
e|----------------|----------------|----------------|----------------|
B|----------------|----------------|----------------|----------------|
G|-7-----7-7-7-7--|-7-----7-7-7-7--|-7-----7-7-7-7--|-5-4------------|
D|-7-----7-7-7-7--|-7-----7-7-7-7--|-7-----7-7-7-7--|-5-4------------| repeat
A|-5-----5-8-5-5--|-5-----5-8-5-5--|-5-----5-8-5-5--|-3-2------------|
E|----------------|----------------|----------------|----------------|
2nd time:
e|----------------|----------------|----------------|
B|----------------|----------------|----------------|
G|----------------|----------------|----------------| repeat part II x3
D|-8-7-5-7-5---5--|----------------|----------------|
A|-----------8---8|-7-8-7-5-7-5---5|----------------|
E|----------------|-------------8--|-8-6-8-6-5-6-5/3|

Guitar 2: Part II
e|------10----10--|------10----10--|------10----10--|
B|-8/10----10-----|-8/10----10-----|-8/10----10-----|
G|----------------|----------------|----------------| repeat 2nd and 3rd time only
D|----------------|----------------|----------------|
A|----------------|----------------|----------------|
E|----------------|----------------|----------------|
Guitar 1
e|----------------|----------------|----------------|
B|----------------|----------------|----------------|
G|----------------|----------------|------------10--|
D|----------------|----------------|-7----10----10--|
A|-----8-5--------|-----8-5--------|-7----10----8---|
E|-5h8------------|-5h8------------|-5----8---------|

Part III
Guitar 1, muted
e|----------------|----------------|----------------|----------------|
B|----------------|----------------|----------------|----------------|
G|---7-----7-----7|-----7---10-12--|---7-----7-----7|-----7---5-4----|
D|---7-----7-----7|-----7---10-12--|---7-----7-----7|-----7---5-4----|
A|-5---5-5---5-5--|-5-5---5-8--10--|-5---5-5---5-5--|-5-5---5-3-2----|
E|----------------|----------------|----------------|----------------|

e|----------------|----------------|----------------|----------------|----------------|
B|----------------|----------------|----------------|----------------|----------------|
G|---7-----7-----7|-----7---10-12--|-5--------------|----------------|----------------|
D|---7-----7-----7|-----7---10-12--|---9-7-9-7-5-7-5|---5------------|----------------|
A|-5---5-5---5-5--|-5-5---5-8--10--|----------------|-8---8-7-8-7-5-7|-5---5----------|
E|----------------|----------------|----------------|----------------|---8---8-7-8-7-5|

e|----------------|----------------|----------------|----------------|
B|----------------|----------------|----------------|----------------|
G|---7-----7-----7|-----7---10-12--|---7-----7-----7|-----7---5-4----|
D|---7-----7-----7|-----7---10-12--|---7-----7-----7|-----7---5-4----|   x7
A|-5---5-5---5-5--|-5-5---5-8--10--|-5---5-5---5-5--|-5-5---5-3-2----|
E|----------------|----------------|----------------|----------------|

e|-------------------------|
B|-------------------------|
G|-5-----------------------|
D|---9-7-9-7-5-7-5---5-----| x3
A|-----------------8---8-7-|
E|-------------------------|

e|-------------------------|----------------------|----------------|
B|-------------------------|----------------------|----------------|
G|-5-----------------------|----------------------|-5-7-5-7-5-7-5-7|
D|---9-7-9-7-5-7-5---5-----|----------------------|-5-7-5-7-5-7-5-7|
A|-----------------8---8-7-|-8-7-5-7-5---5--------|-3-5-3-5-3-5-3-5|
E|-------------------------|-----------8---8-7-8-7|----------------|

e|----------------|
B|----------------|
G|-5--------7-----|
D|-5--------7-----|
A|-3--------5-----|
E|----------------|

Part III
Guitar 2: w/slide
e|----------------|----------------|----------------|------------------|
B|-2//////////////|////////////////|24///-----------|------------------|
G|----------------|----------------|----------------|------------------|
D|----------------|----------------|----------------|------------------|
A|----------------|----------------|----------------|------------------|
E|----------------|----------------|----------------|------------------|
Добавлено: 12.10.2013
Другие материалы по этой песне:
  • Аккорды и текст

Страница создана 12.10.2013
http://primanota.ru/trans-siberian-orchestra-2/toccata-chords.htm
Привет, Гость.
Предлагаем пройти революционный курс по гитаре.
Подарок от PrimaNota.Ru, забирай!