PrimaNota.ru - самый крупный в мире бесплатный архив песенных текстов, аккордов, табулатур и нот


Trans Siberian Orchestra - This Is Who You Are - таба, видео

Регистрация Запомнить меня
Войти через:  Facebook Google Twitter Vk Yandex Mail.ru

Trans Siberian Orchestra - This Is Who You Are - таба, видео

Печатать
Просмотров: 67
This is who you are, #17 on Beethoven CD
Standard Tuning
(.40)
E--------------------------------------------|
B--------------------------------------------|
G------------4-2-4---4-2-4---4-2-4---4-2-4---|
D----------2-4-2-4-2-4-2-4-2-4-2-4-2-4-2-4-6-|
A-2-2—2-2—-2-2-0-2-0-2-0-2-2-2-0-2-2-2-0-2-4-|
E—-2-2-2-2-0-------0-------0-------0---------|
  ********
(1.41)[REPEATED MANY TIMES]
E-------------------|
B-------------------|
G-------------------|
D-------------------|
A-2-2-2-2-----------|
E—-2-2-2-2[000-000--|
  ****************
(2.22) [repeated many times]
E------------------------|
B------------------------|
G---------2-2------------|
D-4-4-6-6-2-2-2----------|
A-4-4-6-6-0-0-2----------|
E-2-2-4-4-----0[000-000--|
                *******
(3.07) [REPEATED MANY TIMES]
E---------------------------|
B---------------------------|
G-2-4-2-4-2-4-4-4-----------|
D-2-4-2-4-2-4-4-4-----------|
A-0-2-0-2-0-2-2-2-----------|
E-----------------[000-000--|
                   *******
(3.42)
E-----------|
B-----------|
G-2-4-4-4---|
D-2-4-4-4-2-|
A-0-2-2-2-2-|
E---------0-|

*=PALM MUTE

-END
Добавлено: 19.10.2013
Другие материалы по этой песне:
  • Аккорды и текст

Страница создана 19.10.2013
http://primanota.ru/trans-siberian-orchestra-2/this-is-who-you-are-chords.htm
Привет, Гость.
Предлагаем пройти революционный курс по гитаре.
Подарок от PrimaNota.Ru, забирай!