PrimaNota.ru - самый крупный в мире бесплатный архив песенных текстов, аккордов, табулатур и нот


Trans Siberian Orchestra - Sarajevo 1224 - таба, видео

Регистрация Запомнить меня
Войти через:  Facebook Google Twitter Vk Yandex Mail.ru

Trans Siberian Orchestra - Sarajevo 1224 - таба, видео

Печатать
Просмотров: 52
Gtr. 1
E--|--------------------------------------------------------|
B--|--------------------------------------------------------|
G--|---------12-------------12-----------12-----------12----|
D--|-----14------16-----14------16----14----16-----14----16-|
A--|-14-------------14-------------14----------14-----------|
E--|--------------------------------------------------------|

Gtr.1
E--|-----------------------------------------------------------------------|
B--|-----------------------------------------------------------------------|
G--|---------12-------------12-----------12-----------12----------12-------|
D--|-----14------16-----14------16----14----16-----14----16----14----16----|
A--|-14-------------14-------------14----------14-----------14----------14-|
E--|-----------------------------------------------------------------------|
   |
   | Cello arranged for guitar
E--|---------------------------------------------------------------------|
B--|---------------------------------------------------------------------|
G--|----------4---4---2---0----------------------0---2---4---------------|
D--|------2------------------4---2---0---2---4---------------------------|
A--|--2------------------------------------------------------------------|
E--|---------------------------------------------------------------------|


E--|--------------------------------------------------------|
B--|--------------------------------------------------------|
G--|---------12-------------12-----------12-----------12----|
D--|-----14------16-----14------16----14----16-----14----16-|
A--|-14-------------14-------------14----------14-----------|
E--|--------------------------------------------------------|


E--|-----------------------------------------------------------------------|
B--|-----------------------------------------------------------------------|
G--|---------12-------------12-----------12-----------12----------12-------|
D--|-----14------16-----14------16----14----16-----14----16----14----16----|
A--|-14-------------14-------------14----------14-----------14----------14-|
E--|-----------------------------------------------------------------------|
   |
   |
E--|---------------------------------------------0---7---7---5---3---2---0-|
B--|-----------------------------------------0-----------------------------|
G--|---------4---4---2---0-------------------------------------------------|
D--|------2------------------4---2---0---2---------------------------------|
A--|--2--------------------------------------------------------------------|
E--|-----------------------------------------------------------------------|


E--|-----------------------------------------------------------------------|
B--|-----------------------------------------------------------------------|
G--|---------12-------------12-----------12-----------12----------12-------|
D--|-----14------16-----14------16----14----16-----14----16----14----16----|
A--|-14-------------14-------------14----------14-----------14----------14-|
E--|-----------------------------------------------------------------------|
   |
   |
E--|--3---0----------------------------------------0--7--7--5--3--2--0----0-|
B--|--------------------------------------------0-----------------------3---|
G--|------------------------4--4--2--0--------------------------------------|
D--|--------------------2---------------4--2--0--2--------------------------|
A--|----------------2-------------------------------------------------------|
E--|------------------------------------------------------------------------|

     E5
E--|--------------7--7--5--3--2--0------------7--7--5--3--2--0----|
B--|---------0--0-----------------------0--0----------------------|
G--|--------------------------------------------------------------|
D--|-2----------14---12---10---9----2------14---12---10---9----2--|
A--|-2------------------------------2--------------------------2--|
E--|-0----------12---10---8----7----0------12---10---8----7----0--|

Constantly played quietly in backround
E--|-----------------------|
B--|-----------------------|
G--|----------------------*|
D--|----14----14----------*|
A--|-14----14----14-14-14--|
E--|-----------------------|
Play this all the way from the first E5 till the very end


E--|-3--2-3-0--3--2-3-0--3--2-3-0--3--2-3-0--3--2-3-0--3--2-3-0--3--2-3-0-|
B--|----------------------------------------------------------------------|
G--|----------------------------------------------------------------------|
D--|----------------------------------------------------------------------|
A--|----------------------------------------------------------------------|
E--|----------------------------------------------------------------------|


E--|-3--2-3-0--12--12-12-10-8-7--7-7-8-7-5--5-5-7-5-0--0-0-0-|
B--|---------------------------------------------------------|
G--|---------------------------------------------------------|
D--|---------------------------------------------------------|
A--|---------------------------------------------------------|
E--|---------------------------------------------------------|


E--|------------------------------------------------------------|
B--|---------0-1-0------------0-1-0------------0-1---------0-1--|
G--|-----0-2-------2------0-2-------2------0-2---------0-2------|
D--|-2-4--------------2-4--------------2-4---------2-4----------|
A--|------------------------------------------------------------|
E--|------------------------------------------------------------|

E--|---------------------------12---------------------------|
B--|---------0-1---------0-1-3-5----------------------------|
G--|-----0-2---------0-2------------------------------------|
D--|-2-4---------2-4-----------2-2-0------------------------|
A--|---------------------------------3-3-2-0-2-0------------|
E--|---------------------------------------------3-3-2-0----|

E--|---------------------------------------------------------|
B--|-5-5-3-1-1-0---0-----------------------------------------|
G--|-------------2---2-0-0-----------------------------------|
D--|-2-2-0-----------------4-2---2-2-0-----------------------|
A--|-------3-3-2-0-2-0-----------------3-3-2-0-2-0-----------|
E--|-------------------3-3-2-0---------------------3-3-2-0---|

E--|----------------------------------------------------------|
B--|-5-5-3-1-1-0---0------------------------------------------|
G--|-------------2---2-0-0------------------------------------|
D--|-2-2-0-----------------4-2--------------------------------|
A--|-------3-3-2-0-2-0----------------------------------------|
E--|-------------------3-3-2-0--------------------------------|

E--|-3--2-3-0--3--2-3-0--3--2-3-0--3--2-3-0--3--2-3-0--|
B--|-----------17--------15--------13--------10--------|
G--|--------------------------------------------------*|
D--|--------------------------------------------------*|
A--|---------------------------------------------------|
E--|---------------------------------------------------|
play 2 times

E--|-12--12-12-10-8-7--7-7-8-7-5--5-5-7-5-0--0-0-0-|
B--|-----------------------------------------------|
G--|-----------------------------------------------|
D--|-----------------------------------------------|
A--|-----------------------------------------------|
E--|-----------------------------------------------|

E--|-----------------------------------3--2-3-0--3--2-3-0--3--2-3-0-|
B--|---------0-1-0------------0-1-0---------------------------------|
G--|-----0-2-------2------0-2-------2-----------(4)-----------------|
D--|-2-4--------------2-4------------------------5--4-5-2-----------|
A--|----------------------------------------------------------------|
E--|----------------------------------------------------------------|

(4)  Natural harmonic on the fourth fret third string (B) pitch

E--|-3--2-3-0--3--2-3-0--3--2-3-0--3--2-3-0--3--2-3-0--|
B--|---------------------------------------------------|
G--|-5--4-5-2--5--4-5-2--5--4-5-2--5--4-5-2--5--4-5-2--|
D--|---------------------------------------------------|
A--|---------------------------------------------------|
E--|---------------------------------------------------|

E--|-12--12-12-10-8-7--7-7-8-7-5--5-5-7-5-0--0-0-0-|
B--|-----------------------------------------------|
G--|-----------------------------------------------|
D--|-----------------------------------------------|
A--|-----------------------------------------------|
E--|-----------------------------------------------|

E--|------------------------------------------------------------|
B--|---------0-1-0------------0-1-0------------0-1---------0-1--|
G--|-----0-2-------2------0-2-------2------0-2---------0-2------|
D--|-2-4--------------2-4--------------2-4---------2-4----------|
A--|------------------------------------------------------------|
E--|------------------------------------------------------------|

E--|---------------------------12---------------------------|
B--|---------0-1---------0-1-3-5----------------------------|
G--|-----0-2---------0-2------------------------------------|
D--|-2-4---------2-4----------------------------------------|
A--|--------------------------------------------------------|
E--|--------------------------------------------------------|


E--|-3--2-3-0--3--2-3-0--3--2-3-0--3--2-3-0--3--2-3-0--|
B--|---------------------------------------------------|
G--|-5--4-5-2--5--4-5-2--5--4-5-2--5--4-5-2--5--4-5-2--|
D--|---------------------------------------------------|
A--|---------------------------------------------------|
E--|---------------------------------------------------|
   |
   |
E--|/24-------/24-------/24--------/24------/24-------|
B--|--------------------------------------------------|
G--|--------------------------------------------------|
D--|--------------------------------------------------|
A--|--------------------------------------------------|
E--|--------------------------------------------------|

E--|-3--2-3-0--3--2-3-0--3--2-3-0--3--2-3-0--3--2-3-0--3--2-3-0--3--2-3-0-|
B--|----------------------------------------------------------------------|
G--|-5--4-5-2--5--4-5-2--5--4-5-2--5--4-5-2--5--4-5-2--5--4-5-2--5--4-5-2-|
D--|----------------------------------------------------------------------|
A--|----------------------------------------------------------------------|
E--|----------------------------------------------------------------------|
   |
   |
E--|/24-------/24-------/24----|  All I can say here is scale up and down
B--|---------------------------|  Really, really, really, really, fast.
G--|---------------------------|
D--|---------------------------|
A--|---------------------------|
E--|---------------------------|

E--|-3--3--3-3-3--3--3--3-3-3--3--3--3-3-3--3--3--3-3-3--|
B--|-----------------------------------------------------|
G--|-0--0--0-0-0--0--0--0-0-0--0--0--0-0-0--0--0--0-0-0--|
D--|-----------------------------------------------------|
A--|-----------------------------------------------------|
E--|-----------------------------------------------------|

E--|-0-----7----12---19----24---|
B--|----------------------------|
G--|----------------------------|
D--|-2-----2----2----2-----2----|
A--|-2-----2----2----2-----2----|
E--|-0-----0----0----0-----0----|

Because of the instruments used in this song, parts of these tabs may
be..well, wrong. I'll look into it further and see what I can do.
Добавлено: 13.11.2013
Другие материалы по этой песне:
  • Аккорды и текст

Страница создана 13.11.2013
http://primanota.ru/trans-siberian-orchestra-2/sarajevo-1224-chords.htm
Привет, Гость.
Предлагаем пройти революционный курс по гитаре.
Подарок от PrimaNota.Ru, забирай!