PrimaNota.ru - самый крупный в мире бесплатный архив песенных текстов, аккордов, табулатур и нот


Trans Siberian Orchestra - Nutrocker - таба, видео

Регистрация Запомнить меня
Войти через:  Facebook Google Twitter Vk Yandex Mail.ru

Trans Siberian Orchestra - Nutrocker - таба, видео

Печатать
Просмотров: 110
Уроки эстрадного вокала в Санкт-Петербурге
Авторы музыки: Kim Fowley

E|--------------------------------------------------------------|
B|--------------------------------------------------------------|
G|--------------------------------------------------------------|
D|---5----5-5-5-5----5-5-5-5---5---5---5---5-5-5-5----5---5---5-|
A|---5----5-5-5-5----5-5-5-5---5---5---5---5-5-5-5----5---5---5-|
E|---3----3-3-3-3----3-3-3-3---3---3---3---3-3-3-3----3---5---3-|


E|-------------------------------------------------------------------------------|
B|13---15---13---12h13p12-----------------------12v--13---12---------------------|
G|--------------------------14---12---11---14------------------14---12---11------|
D|----------------------------------------------------------------------------14-|
A|-------------------------------------------------------------------------------|
E|-------------------------------------------------------------------------------|




E|---------------------------------------------------------------------------------|
B|12h13p12-----------------------------------------12---13v--12-------------12/15--|v
G|-----------14---12---11---14b15---12---11-----------------------14---12----------|
D|--------------------------------------------14-----------------------------------|
A|---------------------------------------------------------------------------------|
E|---------------------------------------------------------------------------------|


E|--------------------------------------------------------------|
B|--------------------------------------------------------------|
G|--------------------------------------------------------------|
D|---5----5-5-5-5----5-5-5-5---5---5---5---5-5-5-5----5---5---5-|
A|---5----5-5-5-5----5-5-5-5---5---5---5---5-5-5-5----5---5---5-|
E|---3----3-3-3-3----3-3-3-3---3---3---3---3-3-3-3----3---5---3-|


E|------------------------------------------------------------------------------------|
B|---13---15---13---12h13p12-----------------------12v--13---12-----------------------|
G|-----------------------------14---12---11---14------------------14---12---11--------|
D|-------------------------------------------------------------------------------14---|
A|------------------------------------------------------------------------------------|
E|------------------------------------------------------------------------------------|




E|---------------------------------------------------------------------------------|
B|12h13p12-----------------------------------------12---13v--12-------------12/15--|v
G|-----------14---12---11---14b15---12---11-----------------------14---12----------|
D|--------------------------------------------14-----------------------------------|
A|---------------------------------------------------------------------------------|
E|---------------------------------------------------------------------------------|


E|---------------------------------------------------------------------------------|
B|---------------------------------------------------------------------------------|
G|------------------------------------------------------------------6--5--3--2-----|
D|---5------5--5--5--5----5-5----5-----5-5-5---5--------5-5-5-5~/3--6--5--3--2--5--|
A|---5------5--5--5--5----5-5----5-----5-5-5---5--------5-5-5-5~/3--4--3--1--0--5--|
E|---3------3--3--3--3----3-3----3-----3-3-3---3--------3-3-3-3~/1--------------3--|


E|------------------------------------------------------------------------------------|
B|---13---15---13---12h13p12-----------------------12v--13---12-----------------------|
G|-----------------------------14---12---11---14------------------14---12---11--------|
D|-------------------------------------------------------------------------------14---|
A|------------------------------------------------------------------------------------|
E|------------------------------------------------------------------------------------|




E|---------------------------------------------------------------------------------|
B|12h13p12-----------------------------------------12---13v--12-------------12/15--|v
G|-----------14---12---11---14b15---12---11-----------------------14---12----------|
D|--------------------------------------------14-----------------------------------|
A|---------------------------------------------------------------------------------|
E|---------------------------------------------------------------------------------|



E|----------------------     -----------------------------------------------|
B|----------------------     -----------------------------------------------|
G|----------------------     -----------------------------6--5--3--2--------|
D|--5-5--4-4--2-2--4-4-- x16 -5----5-5-5-5----5-5-5-5~/3--6--5--3--2--5---7-|
A|--5-5--4-4--2-2--4-4--     -5----5-5-5-5----5-5-5-5~/3--4--3--1--0--5---7-|
E|--3-3--2-2--0-0--2-2--     -3----3-3-3-3----3-3-3-3~/1--------------3---5-|


E|--------------------------------------------------------------------------------------|
B|--------------------------------------------------------------------------------------|
G|-------------7-7strum------x9~--x7~----------------------------x10-------x12--x10-----|
D|7-7strum-----7-7strum--7~--x9~--x7~--x7~-------------\10--x10--x10--x10--x12--x10-x10-|
A|7-7strum-x2--5-5strum--7~--x7~--x5~--x7~-------------\10--x10--x8---x10--x10--x8--x10-|
E|5-5strum---------------5~------------x5~---x///////--\8---x8--------x8------------x8--|


E|-----------------------------------------------------------------------|
B|-----------------------------------------------------------------------|
G|-------------------------x12---------x14---x12-------------------------|
D|------------13/12--x12---x12---x12---x14---x12---x12----------------5--|
A|------------13/12--x12---x10---x12---x12---x10---x12----------------5--|
E|--x///////--11/10--x10---------x10---------------x10------x//////---3--|


E|-------------------------------------------------------------|
B|-------------------------------------------------------------|
G|-------------------------------------------------------------|
D|---5-5-5-5----5-5-5-5---5---5---5---5-5-5-5----5---5---5-----|
A|---5-5-5-5----5-5-5-5---5---5---5---5-5-5-5----5---5---5-----|
E|---3-3-3-3----3-3-3-3---3---3---3---3-3-3-3----3---5---3-----|


E|------------------------------------------------------------------------------------|
B|---13---15---13---12h13p12-----------------------12v--13---12-----------------------|
G|-----------------------------14---12---11---14------------------14---12---11--------|
D|-------------------------------------------------------------------------------14---|
A|------------------------------------------------------------------------------------|
E|------------------------------------------------------------------------------------|




E|---------------------------------------------------------------------------------|
B|12h13p12-----------------------------------------12---13v--12-------------12/15--|v
G|-----------14---12---11---14b15---12---11-----------------------14---12----------|
D|--------------------------------------------14-----------------------------------|
A|---------------------------------------------------------------------------------|
E|---------------------------------------------------------------------------------|



E|----------------------     ----------------------------------------------|
B|----------------------     -----13v------15v------20b---20b-20b-20b-20v--|
G|----------------------     ----------------------------------------------|
D|--5-5--4-4--2-2--4-4-- x16 ----------------------------------------------|
A|--5-5--4-4--2-2--4-4--     ----------------------------------------------|
E|--3-3--2-2--0-0--2-2--     ----------------------------------------------|
Добавлено: 09.08.2013
Другие материалы по этой песне:
  • Аккорды и текст

Страница создана 09.08.2013
http://primanota.ru/trans-siberian-orchestra-2/nutrocker-chords.htm
Привет, Гость.
Предлагаем пройти революционный курс по гитаре.
Подарок от PrimaNota.Ru, забирай!