PrimaNota.ru - самый крупный в мире бесплатный архив песенных текстов, аккордов, табулатур и нот


Trans Siberian Orchestra - Mozart And Memories - таба, видео

Регистрация Запомнить меня
Войти через:  Facebook Google Twitter Vk Yandex Mail.ru

Trans Siberian Orchestra - Mozart And Memories - таба, видео

Печатать
Просмотров: 105
Уроки эстрадного вокала в Санкт-Петербурге
This is track 7 on disc 1 of Night Castle, Mozart and Memories. Originally a Savatage 
off of Dead Winter album, with a few changes.
(standard tuning)
(.42)
E-------17b18r17-----------------------------|
B----16----------15b16r15-13~-15b16r15-13~---|
G-17-----------------------------------------|  (x2)
D--------------------------------------------|
A--------------------------------------------|
E--------------------------------------------|


E------------------------------------------|
B-15b16r15-13-15-13----------15b16r15-13---|
G-------------------15---------------------|   (x2)
D----------------------15-15---------------|
A------------------------------------------|
E------------------------------------------|


E--------------------------------------|
B--------------------------------------|
G-17b19-17-17-16-17-17-17b19-17-17-16~-|
D--------------------------------------|
A--------------------------------------|
E--------------------------------------|


E-----------------------------------------------|
B----------------------------------13-15--------|
G-17b19-17-17-16-17b19-17-17-16-16-------14-14\-|
D-----------------------------------------------|
A-----------------------------------------------|
E-----------------------------------------------|

(1.24)
E----------------|
B----------------|
G----------------|
D----------------|
A-22--22--22--22-|
E-00--00--00--00-|
  **  **  **  **

(1.30)
E----------------------------|
B----------------------------|
G-3-3-2-0h2p0----3-3-2p0-----|   (x3)
D-2-2---------2--2-2-----2---|
A----------------------------|
E----------------------------|
      *********

E---------------------------|
B---------------------------|
G-3-3-2-0h2p0----3-3-2#p0---|
D-2-2---------2--2-2------2-|
A---------------------------|
E---------------------------|
      *********

(1.41)
E-------17b18r17----------------------------|
B----16----------15b16r15-13~-15b16r15-13~--|
G-17----------------------------------------|   (x2)
D-------------------------------------------|
A-------------------------------------------|
E-------------------------------------------|

(1.58)
E----------------------------|
B----------------------------|
G-3-3-2-0h2p0----3-3-2p0-----|   (x6)
D-2-2---------2--2-2-----2---|
A----------------------------|
E----------------------------|
      *********

(2.15)
E-----------------------|
B-----------------------|
G---2-0-----------------|   (x4)
D-0-----0-3-0-2-3-2-3---|
A-----------------------|
E-----------------------|
  *******************

(2.22)
E--------------------------|
B--------------------------|
G-3-3-2-0h2p0----3-3-2p0---|
D-2-2---------2--2-2-----2-|
A--------------------------|
E--------------------------|
      *********

E----------------------------|
B----------------------------|
G-3-3-2-0h2p0----3-3-2p0-----|
D-2-2---------2--2-2-----2-2-|
A--------------------------2-|
E----------------------------|
      *********

(2.28)
E------------------------|
B------------------------|
G---2-0------------------|    (x4)
D-0-----0-3-0-2-3-2-3----|
A------------------------|
E------------------------|
  *******************

(2.35)
E----------------------------|
B----------------------------|
G-3-3-2-0h2p0----3-3-2p0-----|   (x2)
D-2-2---------2--2-2-----2---|
A----------------------------|
E----------------------------|
      *********

(2.44)
E-------------15p14p12----12----|
B----------14----------15-------|
G-------15----------------------|    (x2)
D-14-17-------------------------|
A-------------------------------|
E-------------------------------|


(2.49)
E-----------------------------------------|
B-18p17p15----15--15p13p11----11----------|
G----------18--------------14----14-12----|
D--------------------------------------15-|
A-----------------------------------------|
E-----------------------------------------|


E-------------------------------|
B-------------------------------|
G-12-12----------------------14-|
D-------15-15-14-14-12-12-11----|
A-------------------------------|
E-------------------------------|

(3.20)
E-----------------------------------------------|
B----17b18-17p15------------17p15---------------|
G---------------17-17-17-17-------17-17-17-17---|   (x2)
D-15--------------------------------------------|
A-----------------------------------------------|
E-----------------------------------------------|

(3.37)
E---------------------------------------18-----------|
B-17b18-17p15------18b20-18-17-----20b22---20p18h20~-|
G-------------15#--------------17~-------------------|
D----------------------------------------------------|
A----------------------------------------------------|
E----------------------------------------------------|

(3.55)
E----------13----------13-----------16-13-------|
B-------------13----------13--------------15-12-|
G----------------14----------13-----------------|
D-8-5---------------15#---------15#-------------|
A-----7-----------------------------------------|
E-------8---------------------------------------|


E--------------------|
B-13-14-13-12-13-13--|
G--------------------|
D--------------------|
A--------------------|
E--------------------|
(4.17)
E-----------------------------------|
B-----------------------------------|
G-10-10-10-10\9--6-6-6-6\5--3-3-3-3-|
D-10-10-10-10\9--6-6-6-6\5--3-3-3-3-|
A--8--8--8--8\7--4-4-4-4\3--1-1-1-1-|
E-----------------------------------|


E---------------------------------|
B---------------------------------|
G---5-6-5--5----------------------|
D-3-5-6-5--5--5--5--5--5--5--5--5-|
A-3-3-4-3--3--3--3--3--3--3--3--3-|
E-1---4---------------------------|

(4.29)
E-------------------------------------------|
B-------------------------------------------|
G-10-10-10-10\9--6-6-6-6\5--3-3-3-3---5-6-5-|
D-10-10-10-10\9--6-6-6-6\5--3-3-3-3-3-5-6-5-|
A--8--8--8--8\7--4-4-4-4\3--1-1-1-1-3-3-4-3-|
E-----------------------------------1---4---|

(4.35)
E-13-15-16-15-13-15-16-15-13----------------------------|
B----------------------------11-13-14-13-11-13-14-13-11-|
G-------------------------------------------------------|
D-------------------------------------------------------|
A-------------------------------------------------------|
E-------------------------------------------------------|


E----13----12-13-----------|
B--------------------------|
G-13----12-----------------|
D--------------------------|
A-----------------[3--3--3-|
E-----------------[1--1--1-|

[brackets repeats a few times]

(4.53)
E------------------------------------|
B------------------------------------|
G------------5-----5-----5-----------|
D--------3-3-5-6-3-5-3-6-5---3-3-3-3-|
A--------3-3-3-6-3-3-3-6-3---3-3-3-3-|
E-1-11-1-1-1-3-4-1---1-4-----1-1-1-1-|
  * ** *

-End

*Key*
* = palm mute
\ = slide down
# = artificial harmonic
17b18 = half bend
17b19 = full bend
~ = tremolo
15b16r15 = half bend and release
h/p = hammer on, pull off

This song is a lot of fun to play so enjoy.  Rock on.  Questions or comments always 
nsxz0r@gmail.com Thanks.
Добавлено: 09.07.2013
Другие материалы по этой песне:
  • Аккорды и текст

Страница создана 09.07.2013
http://primanota.ru/trans-siberian-orchestra-2/mozart-and-memories-chords.htm
Привет, Гость.
Предлагаем пройти революционный курс по гитаре.
Подарок от PrimaNota.Ru, забирай!