PrimaNota.ru - самый крупный в мире бесплатный архив песенных текстов, аккордов, табулатур и нот


Trans Siberian Orchestra - Midnight - таба, видео

Регистрация Запомнить меня
Войти через:  Facebook Google Twitter Vk Yandex Mail.ru

Trans Siberian Orchestra - Midnight - таба, видео

Печатать
Просмотров: 119
----------------------------------------------------------------------------
			     Midnight - William Elliott Whitmore
----------------------------------------------------------------------------
WEW Website: http://www.williamelliottwhitmore.com/
Tabbed by: Steve Henderson
Email: drtywrk_21@hotmail.com

This man is an amazing artist.  If you haven't heard much go get some of him.  If you
the chance go see him live.  Every time I've seen him he captivates the crowd.  He plays a
of banjo and really strips things down to their core.  Amazing.  I am posting this to 
to get the ball rolling on him and hopefully someone can better me or post different
maybe even some banjo stuff (if you can on here and, if not, email me).

Tuning: standard

intro:

E|-------------------------------------------------------------------------|
B|-------------------------------------------------------------------------|
G|-------------------------------------------------------------------------|
D|--2--x-------2--x-------------2--x--------2-----------2--x---------------|
A|--0--x--3/4--0--x---3p2p0-----0--x---3/4--0------0h2--0--x---------------|
E|-----x----------x----------3-----x-----------3~~---------x---------------|

E|-----------------------------------------------|
B|--------------------------3-----3--------------|
G|--------------------------2-----0--------------|
D|-------2--x---------------0-----0----------2---| 2x
A|--3/4--0--x--3p2p0--------0-----x--0h2-----0---|
E|----------x---------3-----------3--------------|

verse:

Well, Midnight rang out like a bell              my heart sunk like a ship
E|-------------------------------------------------------------------------|
B|------3---------3-----------------------------------3------3-------------|
G|------2---------0-----------------------------------2------0-------------|
D|------0---------0--------------2-x------2-x---------0------0----------2--|
A|------0---------x--------------0-x-3/4--0-x-3p2p0---0------x----------0--|
E|----------------3----------------x--------x-------3--------3-------------|

    D    G            A       G    D
Deliver me from this hell before I slip

Chorus:

D                     A            G              D
And the bluebirds can sing but the crows got the soul
D                   A      G           D
And I'm a dog among kings with no self-control
D              A    G            D
The only thing left is to try to live
D               A     G            D (let this one ring out, Then...)
With sins on my back no one could forigive

...back to intro

same progression the rest of the song.

Lyrics (I'm pretty sure this is what he says.  A couple words are hard for me to
because of his deep voice and the twang).

Verse:
Well midnight rang out like a bell
My heart sunk like a ship
Deliver me from this hell before I slip

Well my lungs can longer breathe
And my legs can no longer run
The only thing I need is for this day to be done

Chorus:
And the bluebirds can sing but the crows got the soul
And I'm a dog among kings with no self control
And the only thing left is to try to live
With sins on my back no one could forgive

Verse:
Well the sun shines behind us
And the storm is rollin in
And we need somethin to remind us how to feel again

Second Chorus:
And the bluebirds can sing but the crows got the soul
And I'm a dog among kings with no self control
And the only thing left is to try to live
With sins on my back no one could forgive
And I'm out on a rig before that bow breaks
Have one final memory of my mistakes
And when midnight fell, dropped like a stone
Got a short fuse to burn and I'm a long way from home

Feel free to email me and give corrections or maybe some banjo tabs.  Thanks, have fun.
Добавлено: 01.08.2013
Другие материалы по этой песне:
  • Аккорды и текст

Страница создана 01.08.2013
http://primanota.ru/trans-siberian-orchestra-2/midnight-chords.htm
Привет, Гость.
Предлагаем пройти революционный курс по гитаре.
Подарок от PrimaNota.Ru, забирай!