PrimaNota.ru - самый крупный в мире бесплатный архив песенных текстов, аккордов, табулатур и нот


Trans Siberian Orchestra - March Of The Three Kings - таба, видео

Регистрация Запомнить меня
Войти через:  Facebook Google Twitter Vk Yandex Mail.ru

Trans Siberian Orchestra - March Of The Three Kings - таба, видео

Печатать
Просмотров: 79
 "March of the Three Kings"-Trans-Siberian Orchestra

hear's another awesome song for you TSO fans. Thanx to 
Phil and Bryan for the feedback and some motivation
to get this one out (yes, this is my own work).
The times are right on or damn close to clear up any
confusion. send comments to a20wattmusicman@hotmail.com


intro  (/)means slide up/down, whatever
0:00
E----------------------------------------------------
B---------------------8/10-----8-10-11-10-8-----10---
G--7---7--9-10-9-10-7-------10-------------10-9------
D----7-----------------------------------------------
A----------------------------------------------------
E----------------------------------------------------

E-------------------------------------------------------
B-8-------------------------8/10--8-10-11-10-8----------
G--10-9--7---7--9-10-9-10-7-------------------10-10-9-7-
D----------7--------------------------------------------
A-------------------------------------------------------
E-------------------------------------------------------

Then the mean part (could be in drop D, but here it's 
regular sounding like drop)
0:18
    E    F  E D E F  G   
E------------------------------
B------------------------------
G------------------------------
D--9-9-9-10-9-7-9-10-12--------
A--7-7-7-8--7-5-7-8--10--------
E--7-7-7-8--7-5-7-8--10--------

lead over that (^) bend up 1/2
0:23
E----------------------------------
B-----8-10-------------------------
G--10------7-9-10-12-10-10-9-6^----
D-------------------------------7--
A----------------------------------
E----------------------------------

the next lead
0:32
E---------------------------------
B-----8-10-11-10-8----------------
G--10--------------10-9(10)9-7----
D---------------------------------
A---------------------------------
E---------------------------------

now the fun classical line (that damn near killed me)
0:38
E-------------------------------------------
B----------7--------------------------------
G--7-6-7-9---9-7-6---6-7-9-6-(67697)--------
D------------------9------------------------
A-------------------------------------------
E-------------------------------------------

E---------------------------------I
B----------7----------------------I
G--7-6-7-9---9-7-6---6-7-9-6-7----I  (repeat)
D------------------9--------------I
A---------------------------------I
E---------------------------------I

the next line  >=artificial harm
0:52
E----------------------------------------------
B----------------------------------------------
G----------------------------------6-7-6-------
D--7-9-11-9- 7>--7-9-11-9- 7>--7-9-------9-7---
A----------------------------------------------
E----------------------------------------------

E---------------------
B---------------------
G---------------------
D----------7-9-5-7----  (repeat)
A--10-9-10------------
E---------------------

um, let's see. the trill part with the classical line
(pretty tough)
1:43
E---------------------------------------
B--------7-------7-----7-8-10-8-7-------
G--67697---67697---7-9------------9-7---   (repeat)
D---------------------------------------
A---------------------------------------
E---------------------------------------

the ascending/descending line right after
1:54
E------7----------------7-------------------
B--------10-8-7-----------10-8-7------------
G----7----------9-7-9-7----------9-7-9-7--9-  (then it 
D-------------------------------------------   ritards)
A-------------------------------------------
E-------------------------------------------

Hark Harold! The Three King's line is a comin! ()=trill
2:11
E-----10-10-9-10-14-14-12--17-17-17-15-14-12-14----
B--10----------------------------------------------
G--------------------------------------------------
D--------------------------------------------------
A--------------------------------------------------
E--------------------------------------------------

E-----------------14-14-12-17----------------------
B-----15-15-14-15-------------17-17-14-14-12-------
G--14----------------------------------------14----
D--------------------------------------------------
A--------------------------------------------------
E--------------------------------------------------

E--------14-15-17-17-17----15-14-14(15)14-12-17-19^-17--
B--15-17----------------15------------------------------
G------------------------------------------------------
D--------------------------------------------------------
A--------------------------------------------------------
E--------------------------------------------------------

E-----15-14-14-12---/19-19-19-17-15-14-15----14-15-17---
B--15-------------------------------------17------------
G----------------14-------------------------------------
D-------------------------------------------------------
A-------------------------------------------------------
E-------------------------------------------------------

The cool little lick ^-bend it good
3:06
E--------------14-17-17-17--------------
B--15-15-17-17-------------17^-15-------
G---------------------------------------
D---------------------------------------
A---------------------------------------
E---------------------------------------

E--19-19-19-17-15-14-15----14-15-17------------
B-----------------------17----------15-15-17---
G---------------------------------------------- hold it
D----------------------------------------------
A----------------------------------------------
E----------------------------------------------


then the classical line repeats with a variation
that i still haven't figured out... sorry. 

the finale
3:40
E---------------------------------------------------
B---------------------------------------------------
G----------------------------------7---7-9-11-9-7---
D----------------------------------7-7-7-9-11-7-7---
A--5-0-5-0-5-0-5-0-5-0-5-0-5-0-5-0-5-7-5-7-9----5---
E------------------------------------5--------------

     
Добавлено: 26.11.2013
Вам также может быть интересно:
Другие материалы по этой песне:
  • Аккорды и текст

Страница создана 22.10.2013
http://primanota.ru/trans-siberian-orchestra-2/march-of-the-three-kings-chords.htm
Привет, Гость.
Предлагаем пройти революционный курс по гитаре.
Подарок от PrimaNota.Ru, забирай!