PrimaNota.ru - самый крупный в мире бесплатный архив песенных текстов, аккордов, табулатур и нот


Trans Siberian Orchestra - Good King Joy - таба, видео

Регистрация Запомнить меня
Войти через:  Facebook Google Twitter Vk Yandex Mail.ru

Trans Siberian Orchestra - Good King Joy - таба, видео

Печатать
Просмотров: 63
GOOD KING JOY
band-Trans-Siberian Orchestra
song- Good king joy
tab- mentaladvisory

standard tuning---
tab is long- post in notepad and it will line up.

intro
|------12------12------12------12------12---|
|---12------12------12------12------12------|
|-9-------9-------9-------9-------9-------9-|
|-------------------------------------------|
|-------------------------------------------|
|-------------------------------------------|


|----12------12------12-(12)----12------12------|
|-12------12------12---------12------12------12-|
|-------9-------9------------------9-------9----|
|-----------------------------------------------|
|-----------------------------------------------|
|-----------------------------------------------|


|-12------12------12------12------12------12-|
|------12------12------12------12------12----|
|----9-------9-------9-------9-------9-------|
|--------------------------------------------|
|--------------------------------------------|
|--------------------------------------------|


|------12------12------12------12------12----||
|---12------12------12------12------12-------||
|-9-------9-------9-------9-------9-------9--||
|--------------------------------------------||
|--------------------------------------------||
|--------------------------------------------||


|----12------12------12------12------12------|
|-12------12------12------12------12------12-|
|-------9-------9-------9-------9-------9----|
|--------------------------------------------|
|--------------------------------------------|
|--------------------------------------------|


|-12------12------12------12------12------12--|
|------12------12------12------12------12-----|
|----9-------9-------9-------9-------9--------|
|---------------------------------------------|
|---------------------------------------------|
|---------------------------------------------|


|------12------12------12------12------12---|
|---12------12------12------12------12------|
|-9-------9-------9-------9-------9-------9-|
|-------------------------------------------|
|-------------------------------------------|
|-------------------------------------------|


|----12------12------12------12------12-------|
|-12------12------12------12------12------12--|
|-------9-------9-------9-------9-------9-----|
|---------------------------------------------|
|---------------------------------------------|
|---------------------------------------------|


|-12------12------12------12------12------12-|
|------12------12------12------12------12----|
|----9-------9-------9-------9-------9-------|
|--------------------------------------------|
|--------------------------------------------|
|--------------------------------------------|


|------12------12------12------12------12----|
|---12------12------12------12------12-------|
|-9-------9-------9-------9-------9-------9--|
|--------------------------------------------|
|--------------------------------------------|
|--------------------------------------------|


|----12------12------12------12------12------||
|-12------12------12------12------12------12-||
|-------9-------9-------9-------9-------9----||
|--------------------------------------------||
|--------------------------------------------||
|--------------------------------------------||
|
| Gtr I
|--------------------------------------------||
|--------------------------------------------||
|--------------------------------------------||
|--------------------------------------------||
|--------------------------------------------||
|--------------------------------------------||


|-12------12------12------12------12------12--||
|------12------12------12------12------12-----||
|----9-------9-------9-------9-------9--------||
|---------------------------------------------||
|---------------------------------------------||
|---------------------------------------------||
|
|---------------------------------------------||
|---------------------------------------------||
|---------------------------------------------||
|--2------------------------------------------||
|--2------------------------------------------||
|--0------------------------------------------||


|-------12------12------12------12------12----|
|---12-------12------12------12------12-------|
|-9--------9-------9-------9-------9-------9--|
|---------------------------------------------|
|---------------------------------------------|
|---------------------------------------------|
|
|---------------------------------------------|
|---------------------------------------------|
|---------------------------------------------|
|---(2)---------------------------------------|
|---(2)---------------------------------------|
|---(0)---------------------------------------|


|----12------12------12------12------12-------|-12--------12------12------12------12--------|
|-12------12------12------12------12------12--|--------12------12------12------12------12---|
|-------9-------9-------9-------9-------9-----|-----9--------9-------9-------9-------9------|
|---------------------------------------------|---------------------------------------------|
|---------------------------------------------|---------------------------------------------|
|---------------------------------------------|---------------------------------------------|
|
|---------------------------------------------|---------------------------------------------|
|---------------------------------------------|---------------------------------------------|
|---------------------------------------------|---------------------------------------------|
|-----2---------------------------------------|----(2)--------------------------------------|
|-----2---------------------------------------|----(2)--------------------------------------|
|-----0---------------------------------------|----(0)--------------------------------------|


  Q=120
  Gtr I
|-----------|-----------|-----------|-----------|
|-----------|-----------|-----------|-----------|
|-----------|-----------|-----------|-----------|
|-2----2----|-2----2----|-2----2----|-2----2----|
|-2----2----|-2----2----|-2----2----|-2----2----|
|-0----0----|-0----0----|-0----0----|-0----0----|


|-----------|-----------|-----------|-----------|
|-----------|-----------|-----------|-----------|
|-----------|-----------|-----------|-----------|
|-2----2----|-2----2----|-2----2----|-2----2----|
|-2----2----|-2----2----|-2----2----|-2----2----|
|-0----0----|-0----0----|-0----0----|-0----0----|


|-----------|-----------|----------|------|
|-----------|-----------|----------|------|
|-----------|-----------|----------|------|
|-2----2----|-2----2----|-2--------|-2----|
|-2----2----|-2----2----|-2--------|-2----|
|-0----0----|-0----0----|-0--------|-0----|


|----------|----------|-----------|------||
|----------|----------|-----------|------||
|----------|----------|-----------|------||
|-2--------|-2--------|-2----2----|-2----||
|-2--------|-2--------|-2----2----|-2----||
|-0--------|-0--------|-0----0----|-0----||

|--------------|-------------|-------------|
|--------------|-------------|-------------|
|----4-------4-|----4--------|-2---2-4---4-|
|-2--4-2-2---4-|-2--4--2---2-|-2---2-4---4-|
|-2--2-2-2---2-|-2--2--2---2-|-0---0-2---2-|
|-0----0-0-----|-0-----0---0-|-------------|


|--------------------------------------------|
|--------------------------------------------|
|--9------------------------------(9)--------|
|--9------------------------------(9)----2---|
|--7------------------------------(7)----2---|
|----------------------------------------0---|
|
| Gtr II
|  <
|-12-11-9--------------12-11-9---------------|
|---------12-10-9--------------12-10--9------|
|-----------------11-9------------------11-9-|
|--------------------------------------------|
|--------------------------------------------|
|--------------------------------------------|


|----------------|----------------------------------|
|----------------|----------------------------------|
|----------------|----------------------------------|
|-(2)------(2)-2-|-(2)------------------------(2)-2-|
|-(2)------(2)-2-|-(2)------------------------(2)-2-|
|-(0)------(0)-0-|-(0)------------------------(0)-0-|
|
|----------------|-12-------------------------------|
|----------------|-----14b16r(14)-12-10b12-10--9----|
|----------------|----------------------------------|
|----------------|----------------------------------|
|----------------|----------------------------------|
|----------------|----------------------------------|


|--------------------|------------------------|
|--------------------|------------------------|
|--------------------|------------------------|
|-2-2-2-2-2-2-2--2---|-4-4-4-4---4----4-4-4---|
|-2-2-2-2-2-2-2--2---|-2-2-2-2---2----2-2-2---|
|-0-0-0-0-0-0-0--0---|------------------------|
|
|--------------------|------------------------|
|---------------10-9-|-7-7-7-7-9-9b10-----9-7-|
|--------------------|------------------------|
|--------------------|------------------------|
|--------------------|------------------------|
|--------------------|------------------------|


|--------------------|-------------------|
|--------------------|-------------------|
|-------2-----2----2-|-------------4-----|
|----2--2--2--2-2--2-|-2-----------4-----|
|----2--0--2--0-2--0-|-2-----------2-----|
|----0-----0----0----|-0-----------------|
|
|---12--9------------|-------------------|
|---------12-10-9-10-|-7b9====(7)r(7)----|
|-9------------------|-------------------|
|--------------------|-------------------|
|--------------------|-------------------|
|--------------------|-------------------|


|-------------------------------------|--------------------------------------|
|-------------------------------------|--------------------------------------|
|-------------------------------------|--------------------------------------|
|-------------------------------------|--------------------------------------|
|-2-2-2-2-2-2-2-2-2-2-2-2-2-2-2-2-2-2-|-2-2-2-2-2-2-2-2-2-2-2-2-2-2-2-2-2-2--|
|-0-0-0-0-0-0-0-0-0-0-0-0-0-0-0-0-0-0-|-0-0-0-0-0-0-0-0-0-0-0-0-0-0-0-0-0-0--|
|
|-------------------------------------|--------------------------------------|
|-5-----------------------------------|--------------------------------------|
|-------------------------------------|--------------------------------------|
|-------------------------------------|--------------------------------------|
|-------------------------------------|--------------------------------------|
|-------------------------------------|--------------------------------------|
|
| Gtr IV
|-------------------------------------|--------------------------------------|
|-------------------------------------|--------------------------------------|
|-------------------------------------|--------------------------------------|
|-2-----------------------------------|--------------------------------------|
|-2-----------------------------------|--------------------------------------|
|-0-----------------------------------|--------------------------------------|


|-------------------------------------|
|-------------------------------------|
|-------------------------------------|
|-------------------------------------|
|-2-2-2-2-2-2-2-2-2-2-2-2-2-2-2-2-2-2-|
|-0-0-0-0-0-0-0-0-0-0-0-0-0-0-0-0-0-0-|
|
|-------------------------------------|
|-------------------------------------|
|-------------------------------------|
|-------------------------------------|
|-------------------------------------|
|-------------------------------------|


|---------------------------------------------|
|---------------------------------------------|
|---------------------------------------------|
|---------------------------------------------|
|--2----2-2-2--2-2--2-2--2-2-2-2-2-2-2-2-2-2--|
|--0----0-0-0--0-0--0-0--0-0-0-0-0-0-0-0-0-0--|
|
|---------------------------------------------|
|-16b17-------16---14-------------------------|
|-----------------------16--------------------|
|---------------------------------------------|
|---------------------------------------------|
|---------------------------------------------|


|--------------------------------------------|
|--------------------------------------------|
|--------------------------------------------|
|--------------------------------------------|
|---2--2-2-2-2-2-2-2-2-2-2-2-2-2-2--2----2-2-|
|---0--0-0-0-0-0-0-0-0-0-0-0-0-0-0--0----0-0-|
|
|--------------------------------------------|
|--------------------------------------------|
|-(16)-----------------------------13b14-----|
|--------------------------------------------|
|--------------------------------------------|
|--------------------------------------------|


|----------------------------------------------------------|
|----------------------------------------------------------|
|----------------------------------------------------------|
|----------------------------------------------------------|
|--2-2-2-------2-----2-2-2-------2----2-2-2-2-2-2-2-2-2-2--|
|--0-0-0-------0-----0-0-0-------0----0-0-0-0-0-0-0-0-0-0--|
|
|----------------------------------------------------------|
|----------------------------------------------------------|
|-13-----(13)h14p13-11-----(11)h12p11-9--------------------|
|----------------------------------------------------------|
|----------------------------------------------------------|
|----------------------------------------------------------|


|----------------------------------|---------------------------------|
|----------------------------------|---------------------------------|
|----------------------------------|---------------------------------|
|----------------------------------|---------------------------------|
|--0---0-0-0--0-0-2--2-2-2--2----2-|--2----2-2-2-2-2-2-2-2-2-2-2-2-2-|
|----------------------------------|--0----0-0-0-0-0-0-0-0-0-0-0-0-0-|
|
|----------------------------------|---------------------------------|
|-----12-----14-----16-----14b16---|-15b17---------------------------|
|-(9)------------------------------|---------------------------------|
|----------------------------------|---------------------------------|
|----------------------------------|---------------------------------|
|----------------------------------|---------------------------------|
|
| Gtr IV
|----------------------------------|---------------------------------|
|----------------------------------|-15b17---------------------------|
|-----13-----14-----16-----14b16---|---------------------------------|
|----------------------------------|---------------------------------|
|----------------------------------|---------------------------------|
|----------------------------------|---------------------------------|


|-------------------------------------|
|-------------------------------------|
|-------------------------------------|
|-------------------------------------|
|-2-2-2-2-2-2-2-2-2-2-2-2-2-2-2-2-2-2-|
|-0-0-0-0-0-0-0-0-0-0-0-0-0-0-0-0-0-0-|
|
|-------------------------------------|
|-------------------------------------|
|-------------------------------------|
|-------------------------------------|
|-------------------------------------|
|-------------------------------------|


|----------------------------------------------------|
|----------------------------------------------------|
|----------------------------------------------------|
|----------------------------------------------------|
|--2--2----2-2---2---2-2-2--2----2-2--2-2-2-2-2-2-2--|
|--0--0----0-0---0---0-0-0--0----0-0--0-0-0-0-0-0-0--|
|
|-12-------------------------------------------------|
|----14b16r====(14)-12-----10b12-----10-9------------|
|----------------------------------------------------|
|----------------------------------------------------|
|----------------------------------------------------|
|----------------------------------------------------|


|--------------------|------------------------|
|--------------------|------------------------|
|--------------------|------------------------|
|-2-2-2-2-2-2-2--2---|-4-4-4-4---4----4-4-4---|
|-2-2-2-2-2-2-2--2---|-2-2-2-2---2----2-2-2---|
|-0-0-0-0-0-0-0--0---|------------------------|
|
|--------------------|------------------------|
|---------------10-9-|-7-7-7-7-9-9b10-----9-7-|
|--------------------|------------------------|
|--------------------|------------------------|
|--------------------|------------------------|
|--------------------|------------------------|


|--------------------|-------------||
|--------------------|-------------||
|-------2-----2----2-|--------4----||
|----2--2--2--2-2--2-|-2------4----||
|----2--0--2--0-2--0-|-2------2----||
|----0-----0----0----|-0-----------||
|
|---12--9------------|-------------||
|---------12-10-9-10-|-7b9----7----||
|-9------------------|-------------||
|--------------------|-------------||
|--------------------|-------------||
|--------------------|-------------||


|---------|---------|--0-0-0-0-0-0-0--|-(0)----|
|---------|---------|-/5-5-5-7-5-5-0--|-(0)----|
|---------|---------|-----------------|--------|
|---------|---------|-----------------|--------|
|---------|---------|-----------------|--------|
|---------|---------|-----------------|--------|


|-0-0-0-0-0----|-(0)--------|--0-0-0-0-0-0-0--|
|-2-0-2-4-5----|-(5)--------|-/5-5-5-7-5-5-0--|
|--------------|------------|-----------------|
|--------------|------------|-----------------|
|--------------|------------|-----------------|
|--------------|------------|-----------------|


|-(0)--------|-0-0-0-0-0----|-(0)----||
|-(0)--------|-2-0-2-4-5----|-(5)----||
|------------|--------------|--------||
|------------|--------------|--------||
|------------|--------------|--------||
|------------|--------------|--------||


|-------------|----------------------|
|-------------|--------------------5-|
|-------------|-----------7pb9r(7)---|
|-------------|----------------------|
|-------------|----------------------|
|-------------|----------------------|


|-----------|---------|---------------------|-------------------------------|
|-5\--------|---------|---------------------|-------------------------------|
|-----------|---------|-----7b9-7-----------|-------------------------------|
|-----------|---------|-----------7b9r(7)p5-|-----5-7-7b9r(7)p5-------------|
|-----------|---------|---------------------|---7---------------7-5h7-(7)---|
|-----------|---------|---------------------|-------------------------------|


|-------12\--|------------|-9s7-(7)------|-----|
|-------12\--|------------|--------------|-----|
|------------|--------7s9-|-9s7-(7)------|-----|
|------------|------------|--------------|-----|
|------------|------------|--------------|-----|
|------------|------------|--------------|-----|


|------------------------------------------------|
|------------15------15------15------------------|
|---------12-14b14.5-14b14.5-14b14.5-12----------|
|---12-14-------------------------------14-12s14-|
|------------------------------------------------|
|------------------------------------------------|


|-----------------------------------------|
|-----------14b15r(14)p12-------12-(12)\--|
|-----------14b15r(14)p12----14-12-(12)\--|
|-(14)----x---------------14--------------|
|-----------------------------------------|
|-----------------------------------------|


|--------------|---------------------|
|--------------|---------------------|
|------7-x-7-9-|-(9)--(9)\---7-x-7-9-|
|--------------|---------------------|
|--------------|---------------------|
|--------------|---------------------|


                                        PM|
|----------------|--------------------------|
|----------------|--------------------------|
|-(9)--(9)\------|-2b2.5r(2)-2b4----(2)-----|
|----------------|--------------------------|
|----------------|----------------------5-6-|
|----------------|--------------------------|


   PM-------------------------------------------------------|
|-----------------------------------------------------------|
|-----------------------------------------------------------|
|-----------------------------------------------------------|
|-----------------------------------------------------------|
|--7------5-6-7---5-6--7--------5-----6--7--------5-----6---|
|-------7-------7------------7-----------------7------------|
|
| Gtr II
|------------------------12-------------------------------|
|-15b17---------------15----15-12----15-12-------------12-|
|---------------------------------14-------14-12----12----|
|------------------------------------------------14-------|
|---------------------------------------------------------|
|---------------------------------------------------------|


 -------------------------------------------------------|
|-------------------------------------------------------|
|-------------------------------------------------------|
|-------------------------------------------------------|
|-------------------------------------------------------|
|--7------5-6-7---5-6--7--------5-----6--7-----5---6----|
|-------7-------7------------7-------------7------------|
|
|                                        ~~
|------------------------12---------------------------|
|-15b17---------------15----15-12----15-12---(12)\----|
|---------------------------------14------------------|
|-----------------------------------------------------|
|-----------------------------------------------------|
|-----------------------------------------------------|


   PM----------------------------------------------------------|
|--------------------------------------------------------------|
|--------------------------------------------------------------|
|--------------------------------------------------------------|
|--------------------------------------------------------------|
|--7------5-6-7---5-6--7--------5-----6--7--------5-----6------|
|-------7-------7------------7-----------------7---------------|
|
|------------------------12-------------------------12-14-15-|
|-15b17---------------15----15-12----15-12----12-15----------|
|---------------------------------14-------15----------------|
|------------------------------------------------------------|
|------------------------------------------------------------|
|------------------------------------------------------------|


 ---------------------------------------------------------------------------------------------------------|
|---------------------------------------------------------------------------------------------------------|
|---------------------------------------------------------------------------------------------------------|
|---------------------------------------------------------------------------------------------------------|
|---------------------------------------------------------------------------------------------------------|
|--7--------------------5--------6-----------7-----------------5--------6--------7--------5--6-7---5---6--|
|--------------7--------------------------------------7--------------------------------7---------7--------|
|
|-14-15-14p12----12-------------12-------------------------------12----------------------------------------||
|-------------15----15p14p12-------15p14p12----------------------------------------------------------------||
|----------------------------15-------------15p14p12h14p12h14h15----14p12----------------------------------||
|-------------------------------------------------------------------------14p12-------------14-------(14)\-||
|-------------------------------------------------------------------------------14p12----------------------||
|-------------------------------------------------------------------------------------15p12----------------||


  PM-------------------------------------------------------------------|
|---------------------------------|------------------------------------|
|---------------------------------|------------------------------------|
|---------------------------------|------------------------------------|
|---------------------------------|------------------------------------|
|-7---5-6-7---5-6-7---5-6-7---5-6-|-7---5-6-7---5-6-7---5-6-7---5-6----|
|---7-------7-------7-------7-----|---7-------7-------7-------7--------|


  PM-------------------------------------------------------------------|
|---------------------------------|------------------------------------|
|---------------------------------|------------------------------------|
|---------------------------------|------------------------------------|
|---------------------------------|------------------------------------|
|-7---5-6-7---5-6-7---5-6-7---5-6-|-7---5-6-7---5-6-7---5-6-7---5-6----|
|---7-------7-------7-------7-----|---7-------7-------7-------7--------|


  PM-------------------------------------------------------------------|
|---------------------------------|------------------------------------|
|---------------------------------|------------------------------------|
|---------------------------------|------------------------------------|
|---------------------------------|------------------------------------|
|-7---5-6-7---5-6-7---5-6-7---5-6-|-7---5-6-7---5-6-7---5-6-7---5-6----|
|---7-------7-------7-------7-----|---7-------7-------7-------7--------|


  PM-------------------------------------------------------------------|
|---------------------------------|------------------------------------|
|---------------------------------|------------------------------------|
|---------------------------------|------------------------------------|
|---------------------------------|------------------------------------|
|-7---5-6-7---5-6-7---5-6-7---5-6-|-7---5-6-7---5-6-7---5-6-7---5-6----|
|---7-------7-------7-------7-----|---7-------7-------7-------7--------|


  PM-------------------------------------------------------------------|
|---------------------------------|------------------------------------|
|---------------------------------|------------------------------------|
|---------------------------------|------------------------------------|
|---------------------------------|------------------------------------|
|-7---5-6-7---5-6-7---5-6-7---5-6-|-7---5-6-7---5-6-7---5-6-7---5-6----|
|---7-------7-------7-------7-----|---7-------7-------7-------7--------|


  PM----------------------------------------------------------|
|---------------------------------|---------------------------|
|---------------------------------|---------------------------|
|---------------------------------|-2-2-2-2-2-2-2-2-2-2-2-2---|
|---------------------------------|-2-2-2-2-2-2-2-2-2-2-2-2---|
|-7---5-6-7---5-6-7---5-6-7---5-6-|-0-0-0-0-0-0-0-0-0-0-0-0---|
|---7-------7-------7-------7-----|---------------------------|


  PM-----------------------------------------|
|------------------||------------------------|
|------------------||------------------------|
|-4-4-4-4-4-4-4----||------4----------4------|
|-4-4-4-4-4-4-4----||--2---4--2-2-----4------|
|-2-2-2-2-2-2-2----||--2---2--2-2-----2------|
|------------------||--0------0-0------------|
|
| Gtr II
|------------------||----------------------|
|------------------||-17--16-14------------|
|------------------||-------------16----14-|
|------------------||----------------------|
|------------------||----------------------|
|------------------||----------------------|


|-------------------------------------|
|-------------------------------------|
|----------------4--------------------|
|--2-------------4------------2----2--|
|--2-------------2------------2----2--|
|--0--------------------------0----0--|
|
|-------------------------------------|
|---------------------------------12--|
|-13-(13)h14p13s11-(11)h12p11s9-------|
|-------------------------------------|
|-------------------------------------|
|-------------------------------------|


|---------------|--------------------------------------------|
|---------------|--------------------------------------------|
|-2---2--4----4-|--9------------------------------(9)--------|
|-2---2--4----4-|--9------------------------------(9)----2---|
|-0---0--2----2-|--7------------------------------(7)----2---|
|---------------|----------------------------------------0---|
|
|-9---9-11---11-|-12-----------------------------------------|
|---------------|--------------------------------------------|
|---------------|--------------------------------------------|
|---------------|--------------------------------------------|
|---------------|--------------------------------------------|
|---------------|--------------------------------------------|
|
| Gtr IV
|---------------|-12-11-9--------------12-11-9---------------|
|---------------|---------12-10-9--------------12-10--9------|
|---------------|-----------------11-9------------------11-9-|
|---------------|--------------------------------------------|
|---------------|--------------------------------------------|
|---------------|--------------------------------------------|


|--------------------------------------------------------------------------------------------------------------------------------------------------|
|--------------------------------------------------------------------------------------------------------------------------------------------------|
|--------------------------------------------------------------------------------------------------------------------------------------------------|
|-(2)---------------------------------------------------------------------------------------------------------(2)-----------------2----------------|
|-(2)---------------------------------------------------------------------------------------------------------(2)-----------------2----------------|
|-(0)---------------------------------------------------------------------------------------------------------(0)-----------------0----------------|
|
|-12-----------------------------------------------------------------------------------------------------------------------------------------------|
|--------------------14b16r=====================(14)-------12-------------10----------------10b12-----------------------10--------9----------------|
|--------------------------------------------------------------------------------------------------------------------------------------------------|
|--------------------------------------------------------------------------------------------------------------------------------------------------|
|--------------------------------------------------------------------------------------------------------------------------------------------------|
|--------------------------------------------------------------------------------------------------------------------------------------------------|
|
|--------------------------------16-17-19-17-16---------------------------------------------------------16-17-19--17-16----------------------------|
|--------------------16----17-19-17-19-21-19-17--19--17-16----------------------------------16----17-19-17-19-21--19-17-19-17-16-------------------|
|-----------14-16-18-16----18-20-----------------20--18-16-18-16-14----------------14-16-18-16----18-20-----------------20-18-16-18-16-14----------|
|-14--16-18-16-18-19---------------------------------------19-18-16-18-16-14-16-18-16-18-19--------------------------------------19-18-16-18-16-14-|
|-16--18-19---------------------------------------------------------19-18-16-18-19--------------------------------------------------------19-18-16-|
|--------------------------------------------------------------------------------------------------------------------------------------------------|


|--------------------------------------------------------------------------------------------------------------------------------------------------|
|--------------------------------------------------------------------------------------------------------------------------------------------------|
|--------------------------------------------------------------------------------------------------------------------------------------------------|
|-(2)---------------------------------------------------------------------------------------------------------(2)-----------------2----------------|
|-(2)---------------------------------------------------------------------------------------------------------(2)-----------------2----------------|
|-(0)---------------------------------------------------------------------------------------------------------(0)-----------------0----------------|
|
|-12-----------------------------------------------------------------------------------------------------------------------------------------------|
|--------------------14b16r=====================(14)-------12-------------10----------------10b12-----------------------10--------9----------------|
|--------------------------------------------------------------------------------------------------------------------------------------------------|
|--------------------------------------------------------------------------------------------------------------------------------------------------|
|--------------------------------------------------------------------------------------------------------------------------------------------------|
|--------------------------------------------------------------------------------------------------------------------------------------------------|
|
|--------------------------------16-17-19-17-16---------------------------------------------------------16-17-19--17-16----------------------------|
|--------------------16----17-19-17-19-21-19-17--19--17-16----------------------------------16----17-19-17-19-21--19-17-19-17-16-------------------|
|-----------14-16-18-16----18-20-----------------20--18-16-18-16-14----------------14-16-18-16----18-20-----------------20-18-16-18-16-14----------|
|-14--16-18-16-18-19---------------------------------------19-18-16-18-16-14-16-18-16-18-19--------------------------------------19-18-16-18-16-14-|
|-16--18-19---------------------------------------------------------19-18-16-18-19--------------------------------------------------------19-18-16-|
|--------------------------------------------------------------------------------------------------------------------------------------------------|


|-------------------------------------------------------------------------------------------------------------------------------------------|
|-------------------------------------------------------------------------------------------------------------------------------------------|
|-------------------------------------------------------------------------------------------------------------------------------------------|
|--2-----------------2--------------2-----------------2--------------2-----------------2--------------2-----------------2-------------------|
|--2-----------------2--------------2-----------------2--------------2-----------------2--------------2-----------------2-------------------|
|--0-----------------0--------------0-----------------0--------------0-----------------0--------------0-----------------0-------------------|
|
|-------------------------------------------------------------------------------------------------------------------------------------------|
|--9-----------------9--------------9-----------------9-------10----12--------------------------------------------------9h10p=9s=7----------|
|-------------------------------------------------------------------------------------------------------------------------------------------|
|-------------------------------------------------------------------------------------------------------------------------------------------|
|-------------------------------------------------------------------------------------------------------------------------------------------|
|-------------------------------------------------------------------------------------------------------------------------------------------|
|
|----------------------------16-17-19-17-16----------------------------------------------------16-17-19-17-16-------------------------------|
|-------------------16-17-19-17-19-21-19-17-19-17-16----------------------------------16-17-19-17-19-21-19-17-19-17-16----------------------|
|----------14-16-18-16-18-20----------------20-18-16-18-16-14----------------14-16-18-16-18-20----------------20-18-16-18-16-14-------------|
|-14-16-18-16-18-19----------------------------------19-18-16-18-16-14-16-18-16-18-19----------------------------------19-18-16-18-16-14----|
|-16-18-19----------------------------------------------------19-18-16-18-19----------------------------------------------------19-18-16----|
|-------------------------------------------------------------------------------------------------------------------------------------------|


|-------------------------------------------------------------------------------------------------------------------------------------------|
|-------------------------------------------------------------------------------------------------------------------------------------------|
|-------------------------------------------------------------------------------------------------------------------------------------------|
|--4-----------------4--------------4-----------------4--------------4--------------------4--------------4-----------------4----------------|
|--2-----------------2--------------2-----------------2--------------2--------------------2--------------2-----------------2----------------|
|-------------------------------------------------------------------------------------------------------------------------------------------|
|
|-------------------------------------------------------------------------------------------------------------------------------------------|
|--7-----------------7--------------7-----------------7--------9-----9b10--------------------------------------------------9--------7-------|
|-------------------------------------------------------------------------------------------------------------------------------------------|
|-------------------------------------------------------------------------------------------------------------------------------------------|
|-------------------------------------------------------------------------------------------------------------------------------------------|
|-------------------------------------------------------------------------------------------------------------------------------------------|
|
|----------------------------16-17-19-17-16-------------------------------------------------------16-17-19-17-16----------------------------|
|-------------------16-17-19-17-19-21-19-17-19-17-16-------------------------------------16-17-19-17-19-21-19-17-19-17-16-------------------|
|----------14-16-18-16-18-20----------------20-18-16-18-16-14-------------------14-16-18-16-18-20----------------20-18-16-18-16-14----------|
|-14-16-18-16-18-19----------------------------------19-18-16-18-16-14----16-18-16-18-19----------------------------------19-18-16-18-16-14-|
|-16-18-19----------------------------------------------------19-18-16----18-19----------------------------------------------------19-18-16-|
|-------------------------------------------------------------------------------------------------------------------------------------------|


|----------------------|-----------------|
|----------------------|-----------------|
|---------2-----2----2-|------------4----|
|------2--2--2--2-2--2-|-2----------4----|
|------2--0--2--0-2--0-|-2----------2----|
|------0-----0----0----|-0---------------|
|
|-----12--9------------|-----------------|
|-----------12-10-9-10-|-9---9h10p9-7----|
|--9-------------------|-----------------|
|----------------------|-----------------|
|----------------------|-----------------|
|----------------------|-----------------|
|
|----------------------|-----------------|
|-17\------------------|-----------------|
|-18\------------------|-----------------|
|----------------------|-----------------|
|----------------------|-----------------|
|----------------------|-----------------|
Добавлено: 05.08.2013
Другие материалы по этой песне:
  • Аккорды и текст

Страница создана 05.08.2013
http://primanota.ru/trans-siberian-orchestra-2/good-king-joy-chords.htm
Привет, Гость.
Предлагаем пройти революционный курс по гитаре.
Подарок от PrimaNota.Ru, забирай!