PrimaNota.ru - самый крупный в мире бесплатный архив песенных текстов, аккордов, табулатур и нот


Trans Siberian Orchestra - God Rest Ye Merry Gentlemen - таба, видео

Регистрация Запомнить меня
Войти через:  Facebook Google Twitter Vk Yandex Mail.ru

Trans Siberian Orchestra - God Rest Ye Merry Gentlemen - таба, видео

Печатать
Просмотров: 60
Artist-Trans-Siberian Orchestra
Song-God Rest Ye Merry Gentlemen
Album-Christmas Eve and Other Stories
written by Paul O'Neil

-----------5|-3-2-----|---2-3-5-|-7----|--------|--------|---------|----------|
------0--0--|-----5-3-|-5-------|-4----|--------|--------|---------|-0--------|
----0-------|---------|---------|-4----|---4-4--|--------|-----0-2-|-2---4----|
--2-2----4--|---------|---------|------|-5---5-7|-5-4-2-0|-2-4-----|-1---6----|
----2----6--|---2-3---|-3-2---4-|-----7|-7---6--|-5---4--|-3-------|-2--------|
----0----7--|-0-----3-|-----0---|------|--------|--------|---------|----------|


---------|--------|--------|----3-5-|-7------7|-7-5-3-2|------3p2--|-5--3--5--|
---------|-3-5----|--------|----3-5-|-8--8----|--------|-5--------5|-2--5-----|
--5---4-5|-----4-2|-0-----0|-2--5-7-|-7----5--|-----4--|-4--4------|-2-----5--|
--7-7-5-4|-3---2--|-2-2-4--|--------|-5-------|-4------|-----------|----------|
----8----|-----4--|-3---5--|--------|---------|--------|-----------|-0--------|
---------|--------|--------|-1------|---------|--------|-----------|----------|


-7-8-10-12|-7-------|---7---7|---7-----|---7-7-5|-3-2----|-------5|---7---7|--|
----------|---10-8-7|-5---5--|-5---5---|-5---4--|-3---5-3|-5-7-8--|-7---7--|--|
-7-9-10---|-9----8--|--------|-------7-|--------|-----6--|-5------|--------|--|
----------|---------|--------|---------|--------|--------|--------|-9------|--|
----------|---------|--------|---------|--------|--------|--------|--------|--|
----------|---------|-0------|---------|--------|--------|--------|--------|--|


---7----|---7-7-5|-3-2----|-------5|-7---7--|-7---7--|--------|--------|------|
-7---7\3|-5---4--|-3---5--|-5-7-8--|---7---7|---7----|--------|---5----|------|
--------|--------|-----6-7|--------|--------|-------4|-5---4-5|-7---4-2|-0----|
--------|--------|--------|-4------|-9------|--------|-7-7-6--|-5---4--|---2--|
--------|--------|--------|-----8--|--------|--------|--------|--------|-3----|
--------|--------|--------|--------|--------|--------|--------|--------|------|


----|-------|--------|--------|----------|-------|--------|--------|-0--------|
----|-------|-0---1-0|-0------|----------|-------|-----3-5|--------|-0--------|
---0|-2--0-2|---0----|---2-0--|-----0----|-2--0-2|-4-5----|-4-2-0--|-0--------|
-4--|-4--1--|--------|-------4|-2-----4-2|-2-----|--------|-3-----4|-2--------|
-4--|-5-----|-3------|-----2--|-2--------|-4--2-3|-5---3--|-----6--|-2--------|
----|-------|-----2--|-1------|---0------|-------|--------|--------|-0--------|
Добавлено: 28.09.2013
Другие материалы по этой песне:
  • Аккорды и текст

Страница создана 28.09.2013
http://primanota.ru/trans-siberian-orchestra-2/god-rest-ye-merry-gentlemen-chords.htm
Привет, Гость.
Предлагаем пройти революционный курс по гитаре.
Подарок от PrimaNota.Ru, забирай!