PrimaNota.ru - самый крупный в мире бесплатный архив песенных текстов, аккордов, табулатур и нот


Trans Siberian Orchestra - Dark - таба, видео

Регистрация Запомнить меня
Войти через:  Facebook Google Twitter Vk Yandex Mail.ru

Trans Siberian Orchestra - Dark - таба, видео

Печатать
Просмотров: 62
This is a great song, Its on the "Beethoven's Last Night" Album.  This should be 100% correct.
Standard Tuning.

Intro
(Piano, singing)


(.53)
D-5-7-8-10-8-7-|   (Repeat 3x's)
A-3-5-6-8--6-5-|

(1.52)
D-5-7-8-10-8-7-|   (Repeat 2x's)
A-3-5-6-8--6-5-|

D-5-7-8-10-8--|7} {Hold out longer}
A-3-5-6-8--6--|5}

(2.19)
D-5-3---5-----|   (Repeat 2x's)
A-3-1-3-3-555-|
E-----1---333-|
This Part goes into the solo

SOLO
(2.49)
E--------------------------------------------------|
B---13-15h16p15-13-13-----13h15p13--------12h13p12-|
G-12-----------------15-15--------15-15-13---------|

E---------------------------------------------------|
B---13-15h16-18-16-15h16p15h16p15-16h18p16-15-15-13-|
G-12------------------------------------------------|


E------15-17-17-17-15-17-17-15-15-15--------------|
B-15-18------------------------------16-13-13-16--|
G-------------------------------------------------|

E-14b15-----------15-17-17-17-15-17-17-17-17-15p13-|
B------16-13-13-16---------------------------------|
G--------------------------------------------------|

E---15
B-16--
G-----

(3.32) Quicker part should be correct.

E-15-13----------------------------|
B------16-15-13--------------------|
G--------------15-13-12------------|
D----------------------15-13-12----|
A-------------------------------15-|
 |______||______||______||_______|
    3       3       3        3

E-------------------------13-15-16-18-19b20-|
B-----------------13-15-16------------------|
G---------12-13-15--------------------------|
D-12-13-15----------------------------------|
 |_______||_______||______||______|
     3        3       3        3

E-19b20-19-18-19b20-21b22b23-20-15-14b15-| (slowly release)
B----------------------------------------|

Key:
h-hammer on
p-pull off
12b13-12th fret bend to 13th, 1/2 bend
12b14-12th fret bend to 14th, full bend
/\-slide up/down
|__3__|- Triplets

Enjoy, Rock on, E-mail about questions or comments!
Добавлено: 06.07.2013
Другие материалы по этой песне:
  • Аккорды и текст

Страница создана 06.07.2013
http://primanota.ru/trans-siberian-orchestra-2/dark-chords.htm
Привет, Гость.
Предлагаем пройти революционный курс по гитаре.
Подарок от PrimaNota.Ru, забирай!