PrimaNota.ru - самый крупный в мире бесплатный архив песенных текстов, аккордов, табулатур и нот


Trans Siberian Orchestra - Christmas Jam - таба, видео

Регистрация Запомнить меня
Войти через:  Facebook Google Twitter Vk Yandex Mail.ru

Trans Siberian Orchestra - Christmas Jam - таба, видео

Печатать
Просмотров: 70
Christmas Jam, track 11 on The Lost Christmas Eve.
(Standard Tune)


(.07)
E---------------------------------------------------|
B---------------------------------------------------|
G---------------------------------------------------|
D-------------------------------------------------2-|
A-------------------------------------------------2-|
E-3/5-5-5-5-55-5-55-5\3-3/5-5-5-5-55-5-55-5\3-5---0-|

Main part repeats several times then ends on e chord

(.45)

E-(12)----(12)------|
B-----(12)----(12)--|
G-------------------|
D-------------------|
A-------------------|
E-------------------|

Repeated several times. (Natural Harm.)

(1.00)

E---------------------------------------14-16-17---|)
B-14-15------14-15------------(14-15-17------------|
G------13-14------13-14—(x4)-----------------------|
D--------------------------------------------------|
A--------------------------------------------------|
E--------------------------------------------------|
Repeats 8times ()=another guitar plays that.

(1.08)

E------------------------------------------------------|
B-9b10-8-----------7-----7-----7-----7-----7-----------|
G--------7---5-7b9---7b9---7b9---7b9---7b9---7b9r7-5---|
D---------/7-----------------------------------------7-|
A------------------------------------------------------|
E------------------------------------------------------|
(1.12)

E-----------------15-16b17~15-12-----------------|
B-5/17------14-15----------------15b17r15!-13----|
G---14-16-17----------------------------------14-|
D------------------------------------------------|
A------------------------------------------------|
E------------------------------------------------|

(!= a bunch of quick bends, listen to cd to hear)

(1.19)

E----------------------------------|
B----13-15-(15b17-15-15b17)-13-----|
G-14---------------------------14\-|
D----------------------------------|
A----------------------------------|
E----------------------------------|

(a lot of bends very fast)

(1.24)

E-12-15-12----------12-15-12-15-15b17~-|
B----------12—(x6)---------------------|
G--------------------------------------|
D--------------------------------------|
A--------------------------------------|
E--------------------------------------|

(1.26)

E-12-15-12----------12-15-12-------|
B----------12—(x6)-----------13----|
G-------------------------------14-|
D----------------------------------|
A----------------------------------|
E----------------------------------|

(1.28)

E-12-15-12----------12-15-12-15-15b17~-15----|
B----------12—(x6)------------------------17-|
G--------------------------------------------|
D--------------------------------------------|
A--------------------------------------------|
E--------------------------------------------|

(1.31)

E-17-20-17----17-20-17---------------------------------|
B----------20---------20-16-20-17-16-16-17-16----------|
G---------------------------------------------19-17----|
D---------------------------------------------------19-|
A------------------------------------------------------|
E------------------------------------------------------|


(continued)   (1.33)
E----------17-22b23-20------------------|
B----16-17------------22-20-------------|
G-19------------------------21-20-19----|
D------------------------------------22-|
A---------------------------------------|
E---------------------------------------|

(continued)
(1.36)              (1.38)
E-22b23-20----------22b23-20----------------|
B----------22-20-22----------22-20----------|
G----------------------------------21-20-19-|
D-------------------------------------------|
A-------------------------------------------|
E-------------------------------------------|

(continued)
(1.40)

E--------------------------------------------------------|
B-20-22-20-17-20—-17-20-17--17—--------------------------|
G-------------------------20----20-21-20-19-20-19--------|
D-------------------------------------------------22-19\-|
A--------------------------------------------------------|
E--------------------------------------------------------|

(1.43)

E-----(12)----(12)-----|
B---------(12)----(12--|
G----------------------|
D-2--------------------|
A-2--------------------|
E-0--------------------|
(natural harm.)

(1.57)

E---------------------------------|---------14-16-17~-|
B-14-15------14-15-----14-15------|-14-15-17----------|
G------13-14------13-14------13-14|-------------------|
D---------------------------------|-------------------|
A---------------------------------|-------------------|
E---------------------------------|-------------------|
Before “|” repeats a few times

(2.02)

E---------------------------------------------|
B---------------------------------------------|
G---------------------------------------------|
D---------------------------------------------|
A---------------------------------------------|
E-3/5-5-5-5-55-5-55-5\3-3/5-5-5-5-55-5-55-5\3-|
Repeats a few times...

(2.21)

E----------------------------------------------------|
B------16b17-15----15-19b20r19-17-------16b17-15--15-|
G----17---------17-------------------17---------17---|
D-/17----------------------------/17-----------------|
A----------------------------------------------------|
E----------------------------------------------------|

E--------------------------------15----------------|
B-19b20r19-17-17b18r17------16b17---15-19b20r19-17-|
G------------------------17------------------------|
D---------------------/17--------------------------|
A--------------------------------------------------|
E--------------------------------------------------|

E------------------------------------------------|
B-------16b17-15--15-17-18-18b20r18-17-17-17-17\-|
G----17---------17-------------------------------|
D-/17--------------------------------------------|
A------------------------------------------------|
E------------------------------------------------|

(2.59)

E----17--19—-20----------17—-19---20--20-|
B-/17—-17—-17---(x4)—-17---17—-17---17---|
G----------------------------------------|
D----------------------------------------|
A----------------------------------------|
E----------------------------------------|

(3.04)

E-22---22-21------------|
B---17-------17-17-(x3)-|
G-----------------------|
D-----------------------|
A-----------------------|
E-----------------------|

E-22----22-21-------20-17-------|
B----17-------17-17------20/22~-|
G-------------------------------|
D-------------------------------|
A-------------------------------|
E-------------------------------|

(3.09)

E----17--19—-20----------17—-19---20--20-|
B-/17—-17—-17---(x4)—-17---17—-17---17---|
G----------------------------------------|
D----------------------------------------|
A----------------------------------------|
E----------------------------------------|

E-22---22-21------------|
B---17-------17-17-(x2)-|
G-----------------------|
D-----------------------|
A-----------------------|
E-----------------------|

(3.16)

E-22---22-21-------17-20-17---17-------------------------|
B---17-------17-17----------20---20-17-------------------|
G--------------------------------------20-21-20-19-17----|
D-----------------------------------------------------19-|
A--------------------------------------------------------|
E--------------------------------------------------------|

(3.19)

E--------------------------|
B--------------------------|
G----17-(19-19-20b21-20-19-|
D-19-----------------------|
A--------------------------|
E--------------------------|
(x10)

(3.24)

E---------------------------------------------------------|
B------20-20-20-20-------20-20-20-20-(x2)-----------------|
G-19b21------------19b21-------------------19b21r19-17----|
D------------------------------------------------------19-|
A---------------------------------------------------------|
E---------------------------------------------------------|

(3.28)

E--------------------------------------------|
B-------20-----20----17-20----17-20----17-20-|
G-21-21---21-21---19-------19-------19-------|
D--------------------------------------------|
A--------------------------------------------|
E--------------------------------------------|

(3.31)

E------------------------------------17-21~\-------------|
B-17-20-17---17-20-17-----(x4)—17-20---------/20-21b22---|\
G----------19---------19---------------------------------|
D--------------------------------------------------------|
A--------------------------------------------------------|
E--------------------------------------------------------|

That's it, very fast, very hard, I'm sure I have some mistakes in there, but It's the
idea, good luck with it, rock on, happy holidays.
Comments/corrections always welcome - nsxz0r@gmail.com
Добавлено: 03.06.2013
Другие материалы по этой песне:
  • Аккорды и текст

Страница создана 03.06.2013
http://primanota.ru/trans-siberian-orchestra-2/christmas-jam-chords.htm
Привет, Гость.
Предлагаем пройти революционный курс по гитаре.
Подарок от PrimaNota.Ru, забирай!