PrimaNota.ru - самый крупный в мире бесплатный архив песенных текстов, аккордов, табулатур и нот


Trans Siberian Orchestra - Christmas Eve Sarajevo 12 24 - таба, видео

Регистрация Запомнить меня
Войти через:  Facebook Google Twitter Vk Yandex Mail.ru

Trans Siberian Orchestra - Christmas Eve Sarajevo 12 24 - таба, видео

Печатать
Просмотров: 86
Trans-Siberian Orchestra
Christmas Eve Sarajevo 12-24

After listening over and over, I found there are actually 4 guitars.
GTR 1 has the high leads,
GTR 2 usually has the same as GTR 1, only lower.
GTR 3 does the haunting 5-0-0-5 part throughout the entire song.
GTR 4 actually has the instrument part throughout the entire song, with
violins, bells, piano, etc.... but it's EXTREMELY quiet.
GTR 3 and 4 aren't all that important, therefore i didn't tab them.

KEY:
^ After a note (12^)= Bend up 1/2 step
~ = Tremello and hold out a little bit longer
CRESC = Crescendo (slowly louder)
X = Mute
x like 3x= Repeat 3 Times (1x, do only Once, duh!)
\ = Slide Down
/ = Slide up
h = Hit (accent)
(fret #) = This fret Note is Optional (But sounds better)

STANDARD TUNING

acoustic intro (clean)
0:00 10x
e-----------------------------
B--------8-7---------8-7------
G-----h9~---------h9~---------
D---9----------9--------------
A-----------------------------
E-----------------------------

The cello part (put into guitar or Bass)
0:06 1st time
D--------9-9-7-----------------7-9~~~~~
A---7-7--------10-9-7-5-7-9-10---------
E--------------------------------------

0:16 x2
D-------9-9-7---------------------
A---7-7-------10-9-7-5-7~~~~~~~---
E---------------------------------

AT THE END GUITAR ENDS ON Fret 9 of D, cello ENDS on D

HEAVY DISTORTION!
  0:32  0:44  0:52
D--h2~~~~h2~~~~h2-------------------
A--h2~~~~h2~~~~h2-(GOT THE POINT?)--
E--h0~~~~h0~~~~h0-------------------

0:32 Haunting Part, THROUGHOUT entire song.
e---------------------------------------
B--5-0-0-5-0-0-5-0-5-0-0-5-0-0-5-ETC
G---------------------------------------

GTR 1: EVEN DURING THE HIGHER PART @ 1:00 GIVES NICE CHORD EFFECT
0:56 x4
e--3-2-3-0---3-2-3-0--------
B---------------------------
G---------------------------

GTR 2:
1:00 x2
e--7-5-7-3---7-5-7-3--------
B--------------------------
G--------------------------

1:04
e--12-h12-12-10------------------------------7-----------
B---------------13-12-h12-12-10-8-h10--10-10---8-h5-5-5--
G--------------------------------------------------------
D--------------------------------------------------------
A--------------------------------------------------------
E--------------------------------------------------------

1:08
e-----------------5-7-5~-------------------5-7-5~----
B------------7-8--------8-------------7-8--------8---
G--------8-9---------------------8-9-----------------
D--9-11--------------------9-11----------------------
A----------------------------------------------------
E----------------------------------------------------

e------------------------------------------------
B-----------7-8-----------7-8-----------7-8------
G-------8-9-----------8-9-----------8-9----------
D--9-11----------9-11----------9-11--------------
A------------------------------------------------
E------------------------------------------------

e---------------5-7-9-11-12^~--OPTIONAL:--(24)--during 12-
B-----------7-8-------------------------------------------
G-------8-9-----------------------------------------------
D--9-11---------------------------------------------------
A---------------------------------------------------------
E---------------------------------------------------------

1:19
GTR:1 1x ONLY at 1:19
e---------------------------------------
B---------------------------------------
G--9-9-9-7------------------------------
D----------10-9-10~ 9-7-9^-7-5-5-4-2----
A---------------------------------------
E---------------------------------------

GTR: 2 Higher riff 2x During 1:19 Also
1:19 2x 2nd time, use power chord at end, not 5th D fret!!
e--12-12-12-10---------------------------------
B--------------13-12^-12-10-12^-10-8-8-7-5~~~~~
G----------------------------------------------
D---------------------------------------h2-NOT-5-
A-----------------------2nd time ONLY:  h2------
E---------------------------------------h0------

1:30 Fade Power Chord during Haunting Part
The power chord is left over from the above section.
e-------------------------------------------------
B-----5-0-0-5-0-0-5-0-5-0-0-5-0-0-5-0-5--etc.... louder till 2:04
G--------------------------------CRESC Slowly----
D--(h2)~~~~~~~~~~~~~~~----------------------------
A--(h2)~~~~~~~~~~~~~~~----------------------------
E--(h0)~~~~~~~~~~~~~~~----------------------------

2:09
GTR 1: 3x
e--12^-10--------     e--12^-10--8^--7--
B---------13^-12-  OR B-----------------
G----------------     G-----------------

GTR 2: 2x 2:13 to be exact
G--9---7---5---4----------------------
D--9---7---5---4----------------------
A--7---5---3---2----------------------
E-(7)-(5)-(3)-(2)---------------------

2:21 The Decent and PARTIAL Ascent
e--12-h12-12-10------------------------------7-----------
B---------------13-12-h12-12-10-8-h10--10-10---8-h5-5-5--
G--------------------------------------------------------
D--------------------------------------------------------
A--------------------------------------------------------
E--------------------------------------------------------

e-----------------5-7-5~-------------------5-7-5~--------
B------------7-8--------8-------------7-8--------8-------
G--------8-9---------------------8-9-----------------STOP!!!
D--9-11--------------------9-11--------------------------
A--------------------------------------------------------
E--------------------------------------------------------


2:29 After Violin's Lead at 2:28, This comes in
don't try unless you have a 24 fret guitar (listen closely for this)
e----------------------------------------/22^~-24^~~~
B---------------------------------------/------------
G--12--11h12-9---------16\12\------16^~/-------------
D----------------------------\14^~/------------------
A--------------------------------(Smoothly)----------
E----------------------------------------------------

2:36 The Decent and Ascent again
e--12-h12-12-10------------------------------7-----------
B---------------13-12-h12-12-10-8-h10--10-10---8-h5-5-5--
G--------------------------------------------------------
D--------------------------------------------------------
A--------------------------------------------------------
E--------------------------------------------------------

e-----------------5-7-5~-------------------5-7-5~----
B------------7-8--------8-------------7-8--------8---
G--------8-9---------------------8-9-----------------
D--9-11--------------------9-11----------------------
A----------------------------------------------------
E----------------------------------------------------

e------------------------------------------------
B-----------7-8-----------7-8-----------7-8------
G-------8-9-----------8-9-----------8-9----------
D--9-11----------9-11----------9-11--------------
A------------------------------------------------
E------------------------------------------------

e---------------5-7-9-11-12^~--OPTIONAL:--(24)--during 12-
B-----------7-8-------------------------------------------
G-------8-9-----------------------------------------------
D--9-11---------------------------------------------------
A---------------------------------------------------------
E---------------------------------------------------------

2:48
GTR 1:
e--24^~--24^~--24^~--24^~--24^~--24^~--24^~--24^~
B------------------------------------------------
G------------------------------------------------

GTR 2:
e--12^~--12^~--12^~--12^~--12^~--12^~--12^~--12^~
B------------------------------------------------
G------------------------------------------------

2:55 Just an easy slide, but i could be wrong, in that case,
     this part is god awfully hard if i am.
4x
e--------------
B--------------
G--16\4-4/16---

Finally, The end, Useless if you dont have 24 fret neck,
but you can drop it down an octive.
3:03 GTR 1:
e--h15---h17---h19---h22---h24^~~~~--h24--
B----X---h15---h17---h20---h24^~~~~--h24--
G--h16------------------------------------

GTR 2:
G---h9---h7----h5----h4------------------
D---h9---h7----h5----h4----h2~~~~----h2--
A---h7---h5----h3----h2----h2~~~~----h2--
E---(0)--(0)---(0)---(0)---h0~~~~----h0--

Then the Haunting part at the very end.
3:12 Fade out
e-----------------------------------
B--5-0-0-5-0-0-5-0-5-0-0-5-0-0-5-0-5 etc...
G-----------------------------------


Tablature Copyright 2002, Abel M. Silveira OLDABE1@hotmail.com
"Christmas Eve Sarajevo 12/24" Copyright 1994 Trans-Siberian Orchestra
All Rights Reserved
     
Добавлено: 15.10.2013
Другие материалы по этой песне:
  • Аккорды и текст

Страница создана 15.10.2013
http://primanota.ru/trans-siberian-orchestra-2/christmas-eve-sarajevo-12-24-chords.htm
Привет, Гость.
Предлагаем пройти революционный курс по гитаре.
Подарок от PrimaNota.Ru, забирай!