PrimaNota.ru - самый крупный в мире бесплатный архив песенных текстов, аккордов, табулатур и нот


Trans Siberian Orchestra - Appalachain Snowfall - таба, видео

Регистрация Запомнить меня
Войти через:  Facebook Google Twitter Vk Yandex Mail.ru

Trans Siberian Orchestra - Appalachain Snowfall - таба, видео

Печатать
Просмотров: 59
This is a great song, located on The Christmas Attic.
(Standard Tune)
(.17)
E--------------------|
B--------------------|
G------7------7------|
D-7-7'-7-7-7'-7-7-7--|
A-5-5'-5-5-5'-5-5-5--|
E--------------------|
PM* *    * *    * *
(.47)
E--------------------------------|
B-----------------10-------------|
G---7------9-11-12---12-11-12----|p9
D-7-7-5-7------------------------|
A-7-5-5-7------------------------|
E-5---3-5------------------------|
Repeat 3 times..then (.58)
E----------------------9--10-------------|
B-----------------10-12-10---------------|
G---7------9-11-12----------------7------|
D-7-7-5-7-------------------------7-7-7--|
A-7-5-5-7-------------------------5-5-5--|
E-5---3-5--------------------------------|
PM                                  * *
(1.18)
E--------------------------------|
B-----------------10-------------|
G---7------9-11-12---12-11-12----|p9
D-7-7-5-7------------------------|
A-7-5-5-7------------------------|
E-5---3-5------------------------|
Repeat 2 times
(1.24)
E------------------------------|
B------------------------------|
G---7---------7-7--------7-----|
D-7-7-5-7-7-7-7-7-5--7-7-7-5-7-|
A-7-5-5-7-7-7-5-5-5--7-7-5-5-7-|
E-5---3-5-5-5-----3--5-5---3-5-|
these 2 lines are played by 2 different guitars together.
E-----------------------------------------------9--10-|
B------------------------------------------10-12-10---|
G-9-9-11-7-9-9-9-11-11-7-9-9-11-7-9-9-11-12-----------|
D-----------------------------------------------------|
A-----------------------------------------------------|
E-----------------------------------------------------|
(1.32)
E-(10)9----10--------10---------10----------|
B-------------------------------------------|
G----------7----------7----------7----------|
D-7-7-7-7'-7-7-7-7-7'-7-7-7-7-7'-7-7-7-7-7--|
A-5-5-5-5'-5-5-5-5-5'-5-5-5-5-5'-5-5-5-5-5--|
E-------------------------------------------|
PM* * * *    * * * *    * * * *    * * * *
^Again this is a 2 guitar part.^
(2.01)              (2.16)
E----------------------------------|
B----------------------------------|
G-2-------------------7------7-----|
D-2-2-2-2-2-2-2-2-2'--7-7-7'-7-7-7-|
A-0-0-0-0-0-0-0-0-0'--5-5-5'-5-5-5-|
E----------------------------------|
PM  * * * * * * * *    * *    * *
(2.31) There is another 2 Guitar part Gtr2 plays one line then Gtr1 plays after it.
E---------------------------------|
B---------------------------------|
G---------------------------------|
D-----0-------2-------4-------7---|
A---2---2---4---4---7---7---7---7-|
E-3-------5-------7-------9-------|
PM*******************************
      ^GTR2^
E-----------------------------------------|
B-----------------------------------------|
G-4p2p0h2h4-9p7p5h7h9-12p11p9h11h12-9---9-|
D-------------------------------------11--|
A-----------------------------------------|
E-----------------------------------------|
      ^GTR1^ (cont..)
E-----------------------------------------------------|
B-----------------------------------------------------|
G-14-12-11-------------4p2p0h2h4-9p7p5h7h9-12-11-9----|
D---------14-12-11---------------------------------12-|
A-----------------14-12-------------------------------|
E-----------------------------------------------------|
                       ^Played w/ GTR2 again----------|
(2.44) fast fill, could be wrong, but works.
E--------------------------14-15-17-19-21-22----|
B--------------12-14-15-17-------------------15-|
G------11-12-14---------------------------------|
D-12-14-----------------------------------------|
A-----------------------------------------------|
E-----------------------------------------------|
GTR 1-2 play here
E----------------------------------------------|
B-(15)-----------------------------------------|
G--7----------7----------7----------7----------|
D--7-7-7-7-7'-7-7-7-7-7'-7-7-7-7-7'-7-7-7-7-7--|
A--5-5-5-5-5'-5-5-5-5-5'-5-5-5-5-5'-5-5-5-5-5--|
E----------------------------------------------|
PM   * * * *    * * * *    * * * *    * * * *
(3.16)
E------------------------------------------|
B-7-7-8-5-7-7-7-8-7-5--7-7-8-5-7-7-7-8-7-5-|
G-7--------------------7-------------------|
D-7--------------------7-------------------|
A-5--------------------5-------------------|
E------------------------------------------|
  ^2 GTRS^,Repeat it once.
(3.31)
E---------------------------------|
B---------------------------------|
G---------------------------------|
D-----0-------2-------4-------7---|
A---2---2---4---4---7---7---7---7-|
E-3-------5-------7-------9-------|
  ^GTR2^ Plays one line then GTR1 plays one etc..
E----------------------------------------------------------|
B----------------------------------------------------------|
G-4p2p0h2h4-9p7p5h7h9-12p11p9h11h12-14-12-11---------------|
D--------------------------------------------14-12-11------|
A----------------------------------------------------14-12-|
E----------------------------------------------------------|
(3.38) ^GTR1^ Cont...
E-----------------------------------|
B-----------------------------------|
G-4p2p0h2h4-9p7p5h7h9-12p11p9h11h12-|
D-----------------------------------|
A-----------------------------------|
E-----------------------------------|
  ^GTR2 plays w/ this too^
ENDING (3.44)
E---------------------|
B---------------------|
G-9------9-14-12-11-9-|
D-----11--------------|
A---12----------------|
E---------------------|
Then piano plays...

KEY:
~ = Vibro
PM * = Palm Mute
ex. 9p7 = 9 pull-off 7
ex. 7h9 = 7 hammer-on 9
' = Played many times/many sets of that chord/note.
That is about it, Good Luck and Rock on. Any questions and comments e-mail me @
teamturboplasma@hotmail.com..Thanks

Will Revise Soon..
Добавлено: 28.06.2013
Другие материалы по этой песне:
  • Аккорды и текст

Страница создана 28.06.2013
http://primanota.ru/trans-siberian-orchestra-2/appalachain-snowfall-chords.htm
Привет, Гость.
Предлагаем пройти революционный курс по гитаре.
Подарок от PrimaNota.Ru, забирай!